Chord/Tab song: Until We Die - Escape the Fate

Chord,Tablature, lyric, sheet, guitar, ukulele song: Until We Die - Escape the Fate - ( Until We Die Escape the Fate What a catchy song. Eve...)

--

----------------------------------------------------------------------------

Until We Die
Escape the Fate


----------------------------------------------------------------------------


What a catchy song. Even though it seems simple enough on guitar, it still gets me everytime.
Enjoy!

Username: dkm817 (same on X box live)
Youtube Cover: http://www.youtube.com/watch?vuZmexyD2WGI
Email: guitardrums@rockfan.com

Guitar 1 Rhythmic (C G C F A D)
Guitar 2 Lead (C G C F A D)

NOTE: This was exported off of guitar pro.

Guitar 1

\1/
W W H E S E S E


D||-------------------|-------------------|-----------0--L------L--|
A||-------------------|-------------------|----------------3--L-L--|
F||-------------------|-------------------|---------------------2--|
C||--0----------------|--0----------------|--L------------------L--|
G||--0----------------|--0----------------|--L------------------L--|
C||--0----------------|--0----------------|--L------------------L--|


W


-------------------|
-------------------|
-------------------|
--0----------------|
--0----------------|
--0----------------|


Pickslide
T T T T T T T T T T T T T T T T T T T T T T T T T T T


-------------------------------------------------------------------------x--x--x-|
-------------------------------------------------------------------------x--x--x-|
---------------------------------------------------------------------------------|
--x---------x-x-x-x-x-x-x-x-x--x--x--x--x--x--x--x--x--x--x--x--x--x--x----------|
--x---------x-x-x-x-x-x-x-x-x--x--x--x--x--x--x--x--x--x--x--x--x--x--x----------|
---------------------------------------------------------------------------------|


PM PM PM PM PM PM PM PM PM PM PM PM PM PM PM PM PM PM PM PM PM PM
T T S T T S T T S S S T T S T T S T T S S S


--------------------------------------------------------------------|
--------------------------------------------------------------------|
--------------------------------------------------------------------|
--0--0--0--0--0--0--0--0--0--0--0--0--0--0--0--0--0--0--0--0--0--0--|
--0--0--0--0--0--0--0--0--0--0--0--0--0--0--0--0--0--0--0--0--0--0--|
--0--0--0--0--0--0--0--0--0--0--0--0--0--0--0--0--0--0--0--0--0--0--|


PM PM PM PM PM PM PM PM PM PM PM PM PM PM PM PM PM PM PM PM PM PM
T T S T T S T T S S S T T S T T S T T S S S


--------------------------------------------------------------------|
--------------------------------------------------------------------|
--------------------------------------------------------------------|
--0--0--0--0--0--0--0--0--0--0--0--0--0--0--0--0--0--0--0--0--0--0--|
--0--0--0--0--0--0--0--0--0--0--0--0--0--0--0--0--0--0--0--0--0--0--|
--0--0--0--0--0--0--0--0--0--0--0--0--0--0--0--0--0--0--0--0--0--0--|


PM PM PM PM PM PM PM PM PM PM PM PM PM PM PM PM PM PM PM PM PM PM
T T S T T S T T S S S T T S T T S T T S S S


--------------------------------------------------------------------|
--------------------------------------------------------------------|
--------------------------------------------------------------------|
--0--0--0--0--0--0--0--0--0--0--0--0--0--0--0--0--0--0--0--0--0--0--|
--0--0--0--0--0--0--0--0--0--0--0--0--0--0--0--0--0--0--0--0--0--0--|
--0--0--0--0--0--0--0--0--0--0--0--0--0--0--0--0--0--0--0--0--0--0--|


PM PM PM PM PM PM PM PM PM PM PM PM PM PM PM PM PM PM PM PM PM PM PM
T T S T T S T T S S S T T S T T S T T T T S S


-----------------------------------------------------------------------|
-----------------------------------------------------------------------|
-----------------------------------------------------------------------|
--0--0--0--0--0--0--0--0--0--0--0--0--0--0--0--0--0--0--0--0--0--0--0--|
--0--0--0--0--0--0--0--0--0--0--0--0--0--0--0--0--0--0--0--0--0--0--0--|
--0--0--0--0--0--0--0--0--0--0--0--0--0--0--0--0--0--0--0--0--0--0--0--|


W Q E S H S W


-------------------|-----------------------|-------------------|
-------------------|-----------------------|-------------------|
-------------------|--5----L--L-3--------L-|-------------------|
--0----------------|--5----L--L-3--------L-|--0----------------|
--0----------------|--3----L--L-1--------L-|--0----------------|
--0----------------|-----------------------|--0----------------|


NH
H H H E S X X X X T T T T E


--------------------|-------------------------------------|
--------------------|-------------------------------------|
--5--------3--------|--------------------------------5--|
--5--------3--------|--0--------L--L-----------------5--|
--3--------1--------|--0--------L--L----------------------|
--------------------|--0--------L--L-0---0---0---0--------|


PM PM PM PM PM PM PM PM PM PM PM PM PM
S S S S S S S S S T T S S S T T S S


---------------------------------------------------|
---------------------------------------------------|
---------------------------------------------------|
--------------3----2-------------------------------|
--5----3-5-----------------------------------------|
----0------0----0----0--0--0--0--0--0--0--0--0--0--|


PM PM PM PM PM PM PM PM PM PM PM PM PM
S S S S S S S S S T T S S S T T S S


---------------------------------------------------|
---------------------------------------------------|
---------------------------------------------------|
--------------3----2-------------------------------|
--5----3-5-----------------------------------------|
----0------0----0----0--0--0--0--0--0--0--0--0--0--|


PM PM PM PM PM PM PM PM PM PM PM PM PM
S S S S S S S S S T T S S S T T S S


---------------------------------------------------|
---------------------------------------------------|
---------------------------------------------------|
--------------3----2-------------------------------|
--5-1--3-5-1----1----1--1--1--1--1--1--1--1--1--1--|
---------------------------------------------------|


PM PM PM PM PM PM PM PM PM
S S S S S S S S S T T S S S S S S


---------------------------------------------|
---------------------------------------------|
---------------------------------------------|
--5----3-2----3----2-------------------5-3-2-|
----0------0----0----0--0--0--0--0--0--------|
---------------------------------------------|


PM PM PM PM PM PM PM PM PM PM PM PM PM PM PM PM PM PM PM PM
T T S S S S T T S T T S S S S T T S S S


--------------------------------------------------------------|
--------------------------------------------------------------|
--------------------------------------------------------------|
--------------------------------------------------------------|
--------------------------------------------------------------|
--0--0--0--0--0--0--0--0--0--0--0--0--0--0--0--0--0--0--0--0--|


PM PM PM PM PM PM PM PM PM PM PM PM PM PM PM PM PM PM PM PM
T T S S S S T T S T T S S S S T T S S S


--------------------------------------------------------------|
--------------------------------------------------------------|
--------------------------------------------------------------|
--------------------------------------------------------------|
--------------------------------------------------------------|
--0--0--0--0--0--0--0--0--0--0--0--0--0--0--0--0--0--0--0--0--|


PM PM PM PM PM PM PM PM PM PM PM PM PM PM PM PM PM PM PM PM
T T S S S S T T S T T S S S S T T S S S


--------------------------------------------------------------|
--------------------------------------------------------------|
--------------------------------------------------------------|
--------------------------------------------------------------|
--1--1--1--1--1--1--1--1--1--1--1--1--1--1--1--1--1--1--1--1--|
--------------------------------------------------------------|


PM PM PM PM PM PM PM PM PM PM PM PM PM PM PM PM
T T S S S S T T S T T S S S S S S S S


--------------------------------------------------------|
--------------------------------------------------------|
--------------------------------------------------------|
--------------------------------------------------5-3-2-|
--0--0--0--0--0--0--0--0--0--0--0--0--0--0--0--0--------|
--------------------------------------------------------|


Q S S S E S S E S E Q S S S E S S E S E


-------------0------0----L--|-------------3------3----L--|
-----------3----3------3-L--|-----------6----6------6-L--|
---------2--------2------2--|---------5--------5------5--|
--0----L--------------------|--3----L--------------------|
--0----L--------------------|--3----L--------------------|
--0----L--------------------|--3----L--------------------|


Q S S S E S S E S E S S S S S S S S S S S S S S S S


-------------3------3----L--|--1-1-1-1-1-1-1-1-1-1-1-1-1-1-1-1-|
-----------3----3------3-L--|--1-1-1-1-1-1-1-1-1-1-1-1-1-1-1-1-|
--5----L-5--------5------5--|--3-3-3-3-3-3-3-3-3-3-3-3-3-3-3-3-|
--5----L--------------------|--3-3-3-3-3-3-3-3-3-3-3-3-3-3-3-3-|
--3----L--------------------|--1-1-1-1-1-1-1-1-1-1-1-1-1-1-1-1-|
----------------------------|----------------------------------|


Q S S S E S S E S E Q S S S E S S E S E


-------------0------0----L--|-------------3------3----L--|
-----------3----3------3-L--|-----------6----6------6-L--|
---------2--------2------2--|---------5--------5------5--|
--0----L--------------------|--3----L--------------------|
--0----L--------------------|--3----L--------------------|
--0----L--------------------|--3----L--------------------|


Q S S S E S S E S E S S S S S S S S S S S S S S S S


-------------3------3----L--|--1-1-1-1-1-1-1-1-1-1-1-1-1-1-1-1-|
-----------3----3------3-L--|--1-1-1-1-1-1-1-1-1-1-1-1-1-1-1-1-|
--5----L-5--------5------5--|--3-3-3-3-3-3-3-3-3-3-3-3-3-3-3-3-|
--5----L--------------------|--3-3-3-3-3-3-3-3-3-3-3-3-3-3-3-3-|
--3----L--------------------|--1-1-1-1-1-1-1-1-1-1-1-1-1-1-1-1-|
----------------------------|----------------------------------|


PM PM PM PM PM PM PM PM PM PM PM PM PM
S S S S S S S S S T T S S S T T S S


---------------------------------------------------|
---------------------------------------------------|
---------------------------------------------------|
--------------3----2-------------------------------|
--5----3-5-----------------------------------------|
----0------0----0----0--0--0--0--0--0--0--0--0--0--|


PM PM PM PM PM PM PM PM PM PM PM PM PM
S S S S S S S S S T T S S S T T S S


---------------------------------------------------|
---------------------------------------------------|
---------------------------------------------------|
--------------3----2-------------------------------|
--5----3-5-----------------------------------------|
----0------0----0----0--0--0--0--0--0--0--0--0--0--|


PM PM PM PM PM PM PM PM PM PM PM PM PM
S S S S S S S S S T T S S S T T S S


---------------------------------------------------|
---------------------------------------------------|
---------------------------------------------------|
--------------3----2-------------------------------|
--5-1--3-5-1----1----1--1--1--1--1--1--1--1--1--1--|
---------------------------------------------------|


PM PM PM PM PM PM PM PM PM
S S S S S S S S S T T S S S S S S


---------------------------------------------|
---------------------------------------------|
---------------------------------------------|
--5----3-2----3----2-------------------5-3-2-|
----0------0----0----0--0--0--0--0--0--------|
---------------------------------------------|


PM PM PM PM PM PM PM PM PM PM PM PM PM PM PM PM PM PM PM PM
T T S S S S T T S T T S S S S T T S S S


--------------------------------------------------------------|
--------------------------------------------------------------|
--------------------------------------------------------------|
--------------------------------------------------------------|
--------------------------------------------------------------|
--0--0--0--0--0--0--0--0--0--0--0--0--0--0--0--0--0--0--0--0--|


PM PM PM PM PM PM PM PM PM PM PM PM PM PM PM PM PM PM PM PM
T T S S S S T T S T T S S S S T T S S S


--------------------------------------------------------------|
--------------------------------------------------------------|
--------------------------------------------------------------|
--------------------------------------------------------------|
--------------------------------------------------------------|
--0--0--0--0--0--0--0--0--0--0--0--0--0--0--0--0--0--0--0--0--|


PM PM PM PM PM PM PM PM PM PM PM PM PM PM PM PM PM PM PM PM
T T S S S S T T S T T S S S S T T S S S


--------------------------------------------------------------|
--------------------------------------------------------------|
--------------------------------------------------------------|
--------------------------------------------------------------|
--1--1--1--1--1--1--1--1--1--1--1--1--1--1--1--1--1--1--1--1--|
--------------------------------------------------------------|


PM PM PM PM PM PM PM PM PM PM PM PM PM PM PM PM
T T S S S S T T S T T S S S S S S S S


--------------------------------------------------------|
--------------------------------------------------------|
--------------------------------------------------------|
--------------------------------------------------5-3-2-|
--0--0--0--0--0--0--0--0--0--0--0--0--0--0--0--0--------|
--------------------------------------------------------|


Q S S S E S S E S E Q S S S E S S E S E


-------------0------0----L--|-------------3------3----L--|
-----------3----3------3-L--|-----------6----6------6-L--|
---------2--------2------2--|---------5--------5------5--|
--0----L--------------------|--3----L--------------------|
--0----L--------------------|--3----L--------------------|
--0----L--------------------|--3----L--------------------|


Q S S S E S S E S E S S S S S S S S S S S S S S S S


-------------3------3----L--|--1-1-1-1-1-1-1-1-1-1-1-1-1-1-1-1-|
-----------3----3------3-L--|--1-1-1-1-1-1-1-1-1-1-1-1-1-1-1-1-|
--5----L-5--------5------5--|--3-3-3-3-3-3-3-3-3-3-3-3-3-3-3-3-|
--5----L--------------------|--3-3-3-3-3-3-3-3-3-3-3-3-3-3-3-3-|
--3----L--------------------|--1-1-1-1-1-1-1-1-1-1-1-1-1-1-1-1-|
----------------------------|----------------------------------|


Q S S S E S S E S E Q S S S E S S E S E


-------------0------0----L--|-------------3------3----L--|
-----------3----3------3-L--|-----------6----6------6-L--|
---------2--------2------2--|---------5--------5------5--|
--0----L--------------------|--3----L--------------------|
--0----L--------------------|--3----L--------------------|
--0----L--------------------|--3----L--------------------|


Q S S S E S S E S E S S S S S S S S S S S S S S S S


-------------3------3----L--|--1-1-1-1-1-1-1-1-1-1-1-1-1-1-1-1-|
-----------3----3------3-L--|--1-1-1-1-1-1-1-1-1-1-1-1-1-1-1-1-|
--5----L-5--------5------5--|--3-3-3-3-3-3-3-3-3-3-3-3-3-3-3-3-|
--5----L--------------------|--3-3-3-3-3-3-3-3-3-3-3-3-3-3-3-3-|
--3----L--------------------|--1-1-1-1-1-1-1-1-1-1-1-1-1-1-1-1-|
----------------------------|----------------------------------|


PM PM PM PM PM PM PM PM
S S S S S S S S S S S S S S S S W


--1-------1-------1-------1-1----1----1-1-|-------------------|
--1-------1-------1-------1-1----1----1-1-|-------------------|
--3-3--3--3-3--3--3-3--3--3-3-3--3-3--3-3-|-------------------|
--3-3--3--3-3--3--3-3--3--3-3-3--3-3--3-3-|--0----------------|
--1-1--1--1-1--1--1-1--1--1-1-1--1-1--1-1-|--0----------------|
------------------------------------------|--0----------------|


W W W


-------------------|-------------------|-------------------|-------------------|
-------------------|-------------------|-------------------|-------------------|
-------------------|-------------------|-------------------|-------------------|
--L----------------|--L----------------|--L----------------|-------------------|
--L----------------|--L----------------|--L----------------|-------------------|
--L----------------|--L----------------|--L----------------|-------------------|
-------------------|-------------------|-------------------|-------------------|
-------------------|-------------------|-------------------|-------------------|
-------------------|-------------------|-------------------|-------------------|
-------------------|-------------------|-------------------|-------------------|
-------------------|-------------------|-------------------|-------------------|
-------------------|-------------------|-------------------|-------------------|


H S S S S Q


-------------------|------------------------|
-------------------|------------------------|
-------------------|-----------x-x----------|
-------------------|-----------x-x----------|
-------------------|-----------x-x----------|
-------------------|------------------------|


PM PM PM PM PM PM PM PM PM PM PM PM PM PM PM PM
S S S S S S S S S S S S S S S S W


--------------------------------------------------|-------------------|
--------------------------------------------------|-------------------|
--5--5--5--5--5--5--5--5--3--3--3--3--3--3--3--3--|-------------------|
--5--5--5--5--5--5--5--5--3--3--3--3--3--3--3--3--|--0----------------|
--3--3--3--3--3--3--3--3--1--1--1--1--1--1--1--1--|--0----------------|
--------------------------------------------------|--0----------------|


H H W H H


--------------------|-------------------|--------------------|
--------------------|-------------------|--------------------|
--5--------3--------|-------------------|--5--------3--------|
--5--------3--------|--0----------------|--5--------3--------|
--3--------1--------|--0----------------|--3--------1--------|
--------------------|--0----------------|--------------------|


W H H W


-------------------|--------------------|-------------------|
-------------------|--------------------|-------------------|
-------------------|--5--------3--------|-------------------|
--0----------------|--5--------3--------|--0----------------|
--0----------------|--3--------1--------|--0----------------|
--0----------------|--------------------|--0----------------|


PM PM PM PM PM PM PM PM
H H S S S S S S S S S S S S S S S S


--------------------|------------------------------------------------|
--------------------|------------------------------------------------|
--5--------3--------|--12-12-12-10-10-10-9-9-------------------------|
--5--------3--------|---x--x--x--x--x--x-x-x-7--7--7--7--7--7--7--7--|
--3--------1--------|--10-10-10--8--8--8-7-7-7--7--7--7--7--7--7--7--|
--------------------|------------------------7--7--7--7--7--7--7--7--|


\1/
Q Q Q Q Q S S S E S S E S E


----------------------|-------------3------3----L--|
----------------------|-----------6----6------6-L--|
----------------------|---------5--------5------5--|
--0-------------------|--3----L--------------------|
--0-------------------|--3----L--------------------|
--0-------------------|--3----L--------------------|


Q S S S E S S E S E S S S S S S S S S S S S S S S S


-------------3------3----L--|--1-1-1-1-1-1-1-1-1-1-1-1-1-1-1-1-|
-----------3----3------3-L--|--1-1-1-1-1-1-1-1-1-1-1-1-1-1-1-1-|
--5----L-5--------5------5--|--3-3-3-3-3-3-3-3-3-3-3-3-3-3-3-3-|
--5----L--------------------|--3-3-3-3-3-3-3-3-3-3-3-3-3-3-3-3-|
--3----L--------------------|--1-1-1-1-1-1-1-1-1-1-1-1-1-1-1-1-|
----------------------------|----------------------------------|


Q S S S E S S E S E Q S S S E S S E S E


-------------0------0----L--|-------------3------3----L--|
-----------3----3------3-L--|-----------6----6------6-L--|
---------2--------2------2--|---------5--------5------5--|
--0----L--------------------|--3----L--------------------|
--0----L--------------------|--3----L--------------------|
--0----L--------------------|--3----L--------------------|


Q S S S E S S E S E S S S S S S S S S S S S S S S S


-------------3------3----L--|--1-1-1-1-1-1-1-1-1-1-1-1-1-1-1-1-|
-----------3----3------3-L--|--1-1-1-1-1-1-1-1-1-1-1-1-1-1-1-1-|
--5----L-5--------5------5--|--3-3-3-3-3-3-3-3-3-3-3-3-3-3-3-3-|
--5----L--------------------|--3-3-3-3-3-3-3-3-3-3-3-3-3-3-3-3-|
--3----L--------------------|--1-1-1-1-1-1-1-1-1-1-1-1-1-1-1-1-|
----------------------------|----------------------------------|


PM PM PM PM PM PM PM PM
S S S S S S S S S S S S S S S S


--1-------1-------1-------1-1----1----1-1-|----|
--1-------1-------1-------1-1----1----1-1-|----|
--3-3--3--3-3--3--3-3--3--3-3-3--3-3--3-3-|----|
--3-3--3--3-3--3--3-3--3--3-3-3--3-3--3-3-|----|
--1-1--1--1-1--1--1-1--1--1-1-1--1-1--1-1-|----|
------------------------------------------|----|


PM PM PM PM PM PM PM PM PM PM PM PM PM PM PM PM PM PM PM PM
T T S S S S T T S T T S S S S T T S S S


--------------------------------------------------------------|
--------------------------------------------------------------|
--------------------------------------------------------------|
--------------------------------------------------------------|
--------------------------------------------------------------|
--0--0--0--0--0--0--0--0--0--0--0--0--0--0--0--0--0--0--0--0--|


PM PM PM PM PM PM PM PM PM PM PM PM PM PM PM PM PM PM PM PM
T T S S S S T T S T T S S S S T T S S S


--------------------------------------------------------------|
--------------------------------------------------------------|
--------------------------------------------------------------|
--------------------------------------------------------------|
--------------------------------------------------------------|
--0--0--0--0--0--0--0--0--0--0--0--0--0--0--0--0--0--0--0--0--|


PM PM PM PM PM PM PM PM PM PM PM PM PM PM PM PM PM PM PM PM
T T S S S S T T S T T S S S S T T S S S


--------------------------------------------------------------|
--------------------------------------------------------------|
--------------------------------------------------------------|
--------------------------------------------------------------|
--------------------------------------------------------------|
--0--0--0--0--0--0--0--0--0--0--0--0--0--0--0--0--0--0--0--0--|


PM PM PM PM PM \1/ PM PM PM PM PM \1/
S S S S S S S S H S S S S S S S S H


--------------------------------|--------------------------------|
--------------------------------|--------------------------------|
--------------------------------|--------------------------------|
--0--0--------0--0--0--0--------|--0--0--------0--0--0--0--------|
--0--0--------0--0--0--0--------|--0--0--------0--0--0--0--------|
--0--0--------0--0--0--0--------|--0--0--------0--0--0--0--------|


PM PM PM PM PM \1/ PM PM PM PM PM \1/
S S S S S S S S H S S S S S S S S H


--------------------------------|--------------------------------|
--------------------------------|--------------------------------|
--------------------------------|--------------------------------|
--0--0--------0--0--0--0--------|--0--0--------0--0--0--0--------|
--0--0--------0--0--0--0--------|--0--0--------0--0--0--0--------|
--0--0--------0--0--0--0--------|--0--0--------0--0--0--0--------|


W W W


-------------------|-------------------|-------------------|
-------------------|-------------------|-------------------|
-------------------|-------------------|-------------------|
--0----------------|--L----------------|--L----------------|
--0----------------|--L----------------|--L----------------|
--0----------------|--L----------------|--L----------------|


W


-------------------||
-------------------||
-------------------||
--L----------------||
--L----------------||
--L----------------||


Guitar 2

\1/
W


D||-------------------|
A||-------------------|
F||-------------------|
C||--0----------------|
G||--0----------------|
C||--0----------------|


PM PM PM PM PM PM PM PM PM PM PM PM PM PM PM PM PM PM
T T S T T S T T S E T T S T T S T T S E


--------------------------------------------------------------|
--------------------------------------------------------------|
--------------------------------------------------------------|
--0--0--0--0--0--0--0--0--0-----0--0--0--0--0--0--0--0--0-----|
--0--0--0--0--0--0--0--0--0-----0--0--0--0--0--0--0--0--0-----|
--0--0--0--0--0--0--0--0--0-----0--0--0--0--0--0--0--0--0-----|


PM PM PM PM PM PM PM PM PM PM PM PM PM PM PM PM PM PM
T T S T T S T T S E T T S T T S T T S E


--------------------------------------------------------------|
--------------------------------------------------------------|
--------------------------------------------------------------|
--0--0--0--0--0--0--0--0--0-----0--0--0--0--0--0--0--0--0-----|
--0--0--0--0--0--0--0--0--0-----0--0--0--0--0--0--0--0--0-----|
--0--0--0--0--0--0--0--0--0-----0--0--0--0--0--0--0--0--0-----|


PM PM PM PM PM PM PM PM PM PM PM PM PM PM PM PM PM PM
T T S T T S T T S E T T S T T S T T S E


--------------------------------------------------------------|
--------------------------------------------------------------|
--------------------------------------------------------------|
--0--0--0--0--0--0--0--0--0-----0--0--0--0--0--0--0--0--0-----|
--0--0--0--0--0--0--0--0--0-----0--0--0--0--0--0--0--0--0-----|
--0--0--0--0--0--0--0--0--0-----0--0--0--0--0--0--0--0--0-----|


PM PM PM PM PM PM PM PM PM PM PM PM PM PM PM PM PM PM
T T S T T S T T S E T T S T T S T T S E


--------------------------------------------------------------|
--------------------------------------------------------------|
--------------------------------------------------------------|
--0--0--0--0--0--0--0--0--0-----0--0--0--0--0--0--0--0--0-----|
--0--0--0--0--0--0--0--0--0-----0--0--0--0--0--0--0--0--0-----|
--0--0--0--0--0--0--0--0--0-----0--0--0--0--0--0--0--0--0-----|


PM PM PM PM PM PM PM PM PM PM PM PM PM PM PM PM PM PM PM PM PM PM
T T S T T S T T S S S T T S T T S T T S S S


--------------------------------------------------------------------|
--------------------------------------------------------------------|
--------------------------------------------------------------------|
--0--0--0--0--0--0--0--0--0--0--0--0--0--0--0--0--0--0--0--0--0--0--|
--0--0--0--0--0--0--0--0--0--0--0--0--0--0--0--0--0--0--0--0--0--0--|
--0--0--0--0--0--0--0--0--0--0--0--0--0--0--0--0--0--0--0--0--0--0--|


PM PM PM PM PM PM PM PM PM PM PM PM PM PM PM PM PM PM PM PM PM PM
T T S T T S T T S S S T T S T T S T T S S S


--------------------------------------------------------------------|
--------------------------------------------------------------------|
--------------------------------------------------------------------|
--0--0--0--0--0--0--0--0--0--0--0--0--0--0--0--0--0--0--0--0--0--0--|
--0--0--0--0--0--0--0--0--0--0--0--0--0--0--0--0--0--0--0--0--0--0--|
--0--0--0--0--0--0--0--0--0--0--0--0--0--0--0--0--0--0--0--0--0--0--|


PM PM PM PM PM PM PM PM PM PM PM PM PM PM PM PM PM PM PM PM PM PM
T T S T T S T T S S S T T S T T S T T S S S


--------------------------------------------------------------------|
--------------------------------------------------------------------|
--------------------------------------------------------------------|
--0--0--0--0--0--0--0--0--0--0--0--0--0--0--0--0--0--0--0--0--0--0--|
--0--0--0--0--0--0--0--0--0--0--0--0--0--0--0--0--0--0--0--0--0--0--|
--0--0--0--0--0--0--0--0--0--0--0--0--0--0--0--0--0--0--0--0--0--0--|


PM PM PM PM PM PM PM PM PM PM PM PM PM PM PM PM PM PM PM PM PM PM PM
T T S T T S T T S S S T T S T T S T T T T S S


-----------------------------------------------------------------------|
-----------------------------------------------------------------------|
-----------------------------------------------------------------------|
--0--0--0--0--0--0--0--0--0--0--0--0--0--0--0--0--0--0--0--0--0--0--0--|
--0--0--0--0--0--0--0--0--0--0--0--0--0--0--0--0--0--0--0--0--0--0--0--|
--0--0--0--0--0--0--0--0--0--0--0--0--0--0--0--0--0--0--0--0--0--0--0--|


PM PM PM PM PM PM PM PM PM PM PM PM PM PM PM PM
S T T S S T T S S T T S S T T S S T T S T T


--------------------------------------------------------------------|
--------------------------------------------------------------------|
--10----------12----------14----------15----------14-------10-------|
-----0--0--0-----0--0--0-----0--0--0-----0--0--0-----0--0-----0--0--|
--------------------------------------------------------------------|
--------------------------------------------------------------------|


PM PM PM
S S S S S S S S S S S Q S


--------------------------------------------|
----------------------------------5b----L-|
--12-10----12-10----12-10-12-9--------------|
--------10-------10------------10-----------|
--------------------------------------------|
--------------------------------------------|


PM PM PM PM PM PM PM PM PM PM PM PM PM PM PM PM
S T T S S T T S S T T S S T T S S T T S T T


--------------------------------------------------------------------|
--------------------------------------------------------------------|
--10----------12----------14----------15----------14-------10-------|
-----0--0--0-----0--0--0-----0--0--0-----0--0--0-----0--0-----0--0--|
--------------------------------------------------------------------|
--------------------------------------------------------------------|


PM PM PMPM PM PM
E S E S Q S T T S S S S


-----------------------------------------|
-----------------------------------------|
--12--L-12b--L-10----L-10-10-10-9--------|
-----------------------------------10----|
--------------------------------------10-|
-----------------------------------------|


NH
S E S E S S S E X X X X T T T T E


------------------------------------------------------|
--11-----11-----11----11--L--11---11---11---11--------|
-----14-----14-----14----14--14---14---14---14---5--|
-------------------------------------------------5--|
------------------------------------------------------|
------------------------------------------------------|


PM PM PM PM PM PM PM PM PM PM PM PM PM
S S S S S S S S S T T S S S T T S S


---------------------------------------------------|
---------------------------------------------------|
---------------------------------------------------|
--------------3----2-------------------------------|
--5----3-5-----------------------------------------|
----0------0----0----0--0--0--0--0--0--0--0--0--0--|


PM PM PM PM PM PM PM PM PM PM PM PM PM
S S S S S S S S S T T S S S T T S S


---------------------------------------------------|
---------------------------------------------------|
---------------------------------------------------|
--------------3----2-------------------------------|
--5----3-5-----------------------------------------|
----0------0----0----0--0--0--0--0--0--0--0--0--0--|


PM PM PM PM PM PM PM PM PM PM PM PM PM
S S S S S S S S S T T S S S T T S S


---------------------------------------------------|
---------------------------------------------------|
---------------------------------------------------|
--------------3----2-------------------------------|
--5-1--3-5-1----1----1--1--1--1--1--1--1--1--1--1--|
---------------------------------------------------|


PM PM PM PM PM PM PM PM PM
S S S S S S S S S T T S S S S S S


---------------------------------------------|
---------------------------------------------|
---------------------------------------------|
--5----3-2----3----2-------------------5-3-2-|
----0------0----0----0--0--0--0--0--0--------|
---------------------------------------------|


PM PM PM PM PM PM PM PM PM PM PM PM PM PM PM PM PM PM PM PM
T T S S S S T T S T T S S S S T T S S S


--------------------------------------------------------------|
--------------------------------------------------------------|
--------------------------------------------------------------|
--------------------------------------------------------------|
--------------------------------------------------------------|
--0--0--0--0--0--0--0--0--0--0--0--0--0--0--0--0--0--0--0--0--|


PM PM PM PM PM PM PM PM PM PM PM PM PM PM PM PM PM PM PM PM
T T S S S S T T S T T S S S S T T S S S


--------------------------------------------------------------|
--------------------------------------------------------------|
--------------------------------------------------------------|
--------------------------------------------------------------|
--------------------------------------------------------------|
--0--0--0--0--0--0--0--0--0--0--0--0--0--0--0--0--0--0--0--0--|


PM PM PM PM PM PM PM PM PM PM PM PM PM PM PM PM PM PM PM PM
T T S S S S T T S T T S S S S T T S S S


--------------------------------------------------------------|
--------------------------------------------------------------|
--------------------------------------------------------------|
--------------------------------------------------------------|
--1--1--1--1--1--1--1--1--1--1--1--1--1--1--1--1--1--1--1--1--|
--------------------------------------------------------------|


PM PM PM PM PM PM PM PM PM PM PM PM PM PM PM PM
T T S S S S T T S T T S S S S S S S S


--------------------------------------------------------|
--------------------------------------------------------|
--------------------------------------------------------|
--------------------------------------------------5-3-2-|
--0--0--0--0--0--0--0--0--0--0--0--0--0--0--0--0--------|
--------------------------------------------------------|


S S S S S S S S S S S S S S S S


----------------------------------|
----------------------------------|
--7-7-7-7-7-7-7-7-7-7-7-7-7-7-7-7-|
--x-x-x-x-x-x-x-x-x-x-x-x-x-x-x-x-|
--5-5-5-5-5-5-5-5-5-5-5-5-5-5-5-5-|
----------------------------------|


S S S S S S S S S S S S S S S S


--------------------------------------------------|
--------------------------------------------------|
--10-10-10-10-10-10-10-10-10-10-10-10-10-10-10-10-|
---x--x--x--x--x--x--x--x--x--x--x--x--x--x--x--x-|
---8--8--8--8--8--8--8--8--8--8--8--8--8--8--8--8-|
--------------------------------------------------|


S S S S S S S S S S S S S S S S


--------------------------------------------------|
--------------------------------------------------|
--12-12-12-12-12-12-12-12-12-12-12-12-12-12-12-12-|
---x--x--x--x--x--x--x--x--x--x--x--x--x--x--x--x-|
--10-10-10-10-10-10-10-10-10-10-10-10-10-10-10-10-|
--------------------------------------------------|


S S S S S S S S S S S S S S S S


--------------------------------------------------|
--------------------------------------------------|
--10-10-10-10-10-10-10-10-10-10-10-10-10-10-10-10-|
---x--x--x--x--x--x--x--x--x--x--x--x--x--x--x--x-|
---8--8--8--8--8--8--8--8--8--8--8--8--8--8--8--8-|
--------------------------------------------------|


S S S S S S S S S S S S S S S S


----------------------------------|
----------------------------------|
--7-7-7-7-7-7-7-7-7-7-7-7-7-7-7-7-|
--x-x-x-x-x-x-x-x-x-x-x-x-x-x-x-x-|
--5-5-5-5-5-5-5-5-5-5-5-5-5-5-5-5-|
----------------------------------|


S S S S S S S S S S S S S S S S


--------------------------------------------------|
--------------------------------------------------|
--10-10-10-10-10-10-10-10-10-10-10-10-10-10-10-10-|
---x--x--x--x--x--x--x--x--x--x--x--x--x--x--x--x-|
---8--8--8--8--8--8--8--8--8--8--8--8--8--8--8--8-|
--------------------------------------------------|


S S S S S S S S S S S S S S S S


--------------------------------------------------|
--------------------------------------------------|
--12-12-12-12-12-12-12-12-12-12-12-12-12-12-12-12-|
---x--x--x--x--x--x--x--x--x--x--x--x--x--x--x--x-|
--10-10-10-10-10-10-10-10-10-10-10-10-10-10-10-10-|
--------------------------------------------------|


S S S S S S S S S S S S S S S S


--------------------------------------------------|
--------------------------------------------------|
--10-10-10-10-10-10-10-10-10-10-10-10-10-10-10-10-|
---x--x--x--x--x--x--x--x--x--x--x--x--x--x--x--x-|
---8--8--8--8--8--8--8--8--8--8--8--8--8--8--8--8-|
--------------------------------------------------|


PM PM PM PM PM PM PM PM PM PM PM PM PM
S S S S S S S S S T T S S S T T S S


---------------------------------------------------|
---------------------------------------------------|
---------------------------------------------------|
--------------3----2-------------------------------|
--5----3-5-----------------------------------------|
----0------0----0----0--0--0--0--0--0--0--0--0--0--|


PM PM PM PM PM PM PM PM PM PM PM PM PM
S S S S S S S S S T T S S S T T S S


---------------------------------------------------|
---------------------------------------------------|
---------------------------------------------------|
--------------3----2-------------------------------|
--5----3-5-----------------------------------------|
----0------0----0----0--0--0--0--0--0--0--0--0--0--|


PM PM PM PM PM PM PM PM PM PM PM PM PM
S S S S S S S S S T T S S S T T S S


---------------------------------------------------|
---------------------------------------------------|
---------------------------------------------------|
--------------3----2-------------------------------|
--5-1--3-5-1----1----1--1--1--1--1--1--1--1--1--1--|
---------------------------------------------------|


PM PM PM PM PM PM PM PM PM
S S S S S S S S S T T S S S S S S


---------------------------------------------|
---------------------------------------------|
---------------------------------------------|
--5----3-2----3----2-------------------5-3-2-|
----0------0----0----0--0--0--0--0--0--------|
---------------------------------------------|


PM PM PM PM PM PM PM PM PM PM PM PM PM PM PM PM PM PM PM PM
T T S S S S T T S T T S S S S T T S S S


--------------------------------------------------------------|
--------------------------------------------------------------|
--------------------------------------------------------------|
--------------------------------------------------------------|
--------------------------------------------------------------|
--0--0--0--0--0--0--0--0--0--0--0--0--0--0--0--0--0--0--0--0--|


PM PM PM PM PM PM PM PM PM PM PM PM PM PM PM PM PM PM PM PM
T T S S S S T T S T T S S S S T T S S S


--------------------------------------------------------------|
--------------------------------------------------------------|
--------------------------------------------------------------|
--------------------------------------------------------------|
--------------------------------------------------------------|
--0--0--0--0--0--0--0--0--0--0--0--0--0--0--0--0--0--0--0--0--|


PM PM PM PM PM PM PM PM PM PM PM PM PM PM PM PM PM PM PM PM
T T S S S S T T S T T S S S S T T S S S


--------------------------------------------------------------|
--------------------------------------------------------------|
--------------------------------------------------------------|
--------------------------------------------------------------|
--1--1--1--1--1--1--1--1--1--1--1--1--1--1--1--1--1--1--1--1--|
--------------------------------------------------------------|


PM PM PM PM PM PM PM PM PM PM PM PM PM PM PM PM
T T S S S S T T S T T S S S S S S S S


--------------------------------------------------------|
--------------------------------------------------------|
--------------------------------------------------------|
--------------------------------------------------5-3-2-|
--0--0--0--0--0--0--0--0--0--0--0--0--0--0--0--0--------|
--------------------------------------------------------|


S S S S S S S S S S S S S S S S


----------------------------------|
----------------------------------|
--7-7-7-7-7-7-7-7-7-7-7-7-7-7-7-7-|
--x-x-x-x-x-x-x-x-x-x-x-x-x-x-x-x-|
--5-5-5-5-5-5-5-5-5-5-5-5-5-5-5-5-|
----------------------------------|


S S S S S S S S S S S S S S S S


--------------------------------------------------|
--------------------------------------------------|
--10-10-10-10-10-10-10-10-10-10-10-10-10-10-10-10-|
---x--x--x--x--x--x--x--x--x--x--x--x--x--x--x--x-|
---8--8--8--8--8--8--8--8--8--8--8--8--8--8--8--8-|
--------------------------------------------------|


S S S S S S S S S S S S S S S S


--------------------------------------------------|
--------------------------------------------------|
--12-12-12-12-12-12-12-12-12-12-12-12-12-12-12-12-|
---x--x--x--x--x--x--x--x--x--x--x--x--x--x--x--x-|
--10-10-10-10-10-10-10-10-10-10-10-10-10-10-10-10-|
--------------------------------------------------|


S S S S S S S S S S S S S S S S


--------------------------------------------------|
--------------------------------------------------|
--10-10-10-10-10-10-10-10-10-10-10-10-10-10-10-10-|
---x--x--x--x--x--x--x--x--x--x--x--x--x--x--x--x-|
---8--8--8--8--8--8--8--8--8--8--8--8--8--8--8--8-|
--------------------------------------------------|


S S S S S S S S S S S S S S S S


----------------------------------|
----------------------------------|
--7-7-7-7-7-7-7-7-7-7-7-7-7-7-7-7-|
--x-x-x-x-x-x-x-x-x-x-x-x-x-x-x-x-|
--5-5-5-5-5-5-5-5-5-5-5-5-5-5-5-5-|
----------------------------------|


S S S S S S S S S S S S S S S S


--------------------------------------------------|
--------------------------------------------------|
--10-10-10-10-10-10-10-10-10-10-10-10-10-10-10-10-|
---x--x--x--x--x--x--x--x--x--x--x--x--x--x--x--x-|
---8--8--8--8--8--8--8--8--8--8--8--8--8--8--8--8-|
--------------------------------------------------|


S S S S S S S S S S S S S S S S


--------------------------------------------------|
--------------------------------------------------|
--12-12-12-12-12-12-12-12-12-12-12-12-12-12-12-12-|
---x--x--x--x--x--x--x--x--x--x--x--x--x--x--x--x-|
--10-10-10-10-10-10-10-10-10-10-10-10-10-10-10-10-|
--------------------------------------------------|


S S S S S S S S S S S S S S S S


--------------------------------------------------|
--------------------------------------------------|
--10-10-10-10-10-10-10-10-10-10-10-10-10-10-10-10-|
---x--x--x--x--x--x--x--x--x--x--x--x--x--x--x--x-|
---8--8--8--8--8--8--8--8--8--8--8--8--8--8--8--8-|
--------------------------------------------------|


PM PM PM PM PM PM PM PM
S S S S S S S S S S S S S S S S W


--1-------1-------1-------1-1----1----1-1-|-------------------|
--1-------1-------1-------1-1----1----1-1-|-------------------|
--3-3--3--3-3--3--3-3--3--3-3-3--3-3--3-3-|-------------------|
--3-3--3--3-3--3--3-3--3--3-3-3--3-3--3-3-|--0----------------|
--1-1--1--1-1--1--1-1--1--1-1-1--1-1--1-1-|--0----------------|
------------------------------------------|--0----------------|


W W W


-------------------|-------------------|-------------------|
-------------------|-------------------|-------------------|
-------------------|-------------------|-------------------|
--L----------------|--L----------------|--L----------------|
--L----------------|--L----------------|--L----------------|
--L----------------|--L----------------|--L----------------|


W W W


--------------------|--------------------|--13----------------|
--15----------------|--13----------------|--------------------|
--------------------|--------------------|--------------------|
--------------------|--------------------|--------------------|
--------------------|--------------------|--------------------|
--------------------|--------------------|--------------------|


W W W


--12----------------|--------------------|--------------------|
--------------------|--15----------------|--13----------------|
--------------------|--------------------|--------------------|
--------------------|--------------------|--------------------|
--------------------|--------------------|--------------------|
--------------------|--------------------|--------------------|


W H S S S S S S S S


--13----------------|--12------------------------|
--------------------|--------------------------6-|
--------------------|----------------------5-7---|
--------------------|------------5-7-0-5-7-------|
--------------------|----------------------------|
--------------------|----------------------------|


Q E S S Q E T T S S Q E S T T S S S S S S S


-----------------------------------|----------------12-13-12-------------------|
-------------/13-13----L-----------|-------------------------13----------------|
--7~----L--L-/14-14----L--14-12----|-----12----L--L-------------12-------------|
--------------------------------14-|--15---------------------------15-14-12----|
-----------------------------------|----------------------------------------15-|
-----------------------------------|-------------------------------------------|


PM
E S S H S T X T X T X T X


--------------------------------------------|
-----------15-----------15-L------17-L------|
-----------------------------19-L------21-L-|
--12--L-10-----------0----------------------|
--------------------------------------------|
--------------------------------------------|


Q E T T T T Q E E


-------------------------------------|
--18----L--18-15---------------------|
-----------------17-14-17b----L--L\--|
-------------------------------------|
-------------------------------------|
-------------------------------------|


PM PM PM PM PM PM PM PM PM PMPM PM PM PM PM PM
S S S S S S S S S S S S S S S S


--------------------------------------------------|
--------------------------10----------------------|
-----------------7--9--10----10-9--7--------------|
-----------7--8-----------------------8--7--------|
--5--7--8----------------------------

Chords List

Chord: Until We Die - Escape the Fate - tab, song lyric, sheet, guitar, ukulele
Maybe you like