Chord/Tab song: Stand - Rascal Flatts

Chord,Tablature, lyric, sheet, guitar, ukulele song: Stand - Rascal Flatts - ( # #Title: Stand #Artist: Rascal Flatts #Album: Me & My Ga...)

--
#
#Title: Stand
#Artist: Rascal Flatts
#Album: Me & My Gang
#Tabbed By: JOLO
#Authors Note: Im not as certain as you think I am about this, but I did my best.
#are welcome. I love this song! Plus, check out this awesome Harry Potter fan-video done on
#it kicks ass!
#
#

|-----------------------------------|


#

|----------3------------------------|


#

|------5----------------------------|


#

|---5-------------------------------|


#

|-----------------------------------|


#

|-----------------------------------|


#
#IntroF Am -G 2x
#
#Verse 1
#
Youfeellikeaca[F]ndle, [A5] in a hur[G]ricane,
Justlike [F] apicture,[A5] with a b[G]roken[Em] frame,
Al[F]oneand helpless, [A5] like yo[G]uve lost your fight,
but youll be[Dm] alright, Youll be al[F]right, cause


(Chorus)
When pu[Am]sh comes to s[F5]hove you taste [C]what youre made [G]of,
You might [Am]bend till you bre[F]ak, 'cause its [C]all you ca[G]n take,
On your k[Am]nees you loo[F]k up, decide yo[C]uve had enou[G]gh
You get [F]mad, you get st[Am]rong, wipe your [G]head, shake it off
Then you stand,[Am-F-C-G]
Then you stand [Am-F-C-G]


Verse 2

Lifes like a n[F]ovel,[Am]with the e[G]nd ripped out
The edge [F]of a canyon,[Am] with only[G] one way dow[Em]n,
Take what[F] youre given,[Am] be[G]fore its gone,
Start hol[Dm]din on, keep hold[F]in on, cause

(Chorus 2)

When p[Am]ush comes to sh[F]ove you tas[C]te what youre made o[G]f,
You might be[Am]nd till you br[F]eak, 'cause its a[C]ll you can take[G],
On your [Am]knees you look [F]up, decide y[C]ouve had enou[G]gh
You get m[F]ad, you get s[Am]trong, wipe your he[G]ad, shake it off
Then you stand,[Am-F-C-G]
Then you stand [Am-F-C-G]

(Bridge)

[F]Every time you get up and get back in the race
One more sma[D/F#]ll piece of you starts to fall into place


(SOLO)




|------------------------------------------|




|--------------------13-13-15-15/17-15-13--|




|-9/14~-14~-12~14~14-----------------------|




|------------------------------------------|




|------------------------------------------|




|------------------------------------------|





|-------------------------------------------17---|




|-----------13--------------------17-20-20^------|




|-12/14-14~---14-14~-17-17-19-19^----------------|




|------------------------------------------------|




|------------------------------------------------|




|------------------------------------------------|





(Repeat chorus)

Then you stand, t[Am]heny[F]ou s[C-G]tand
Then you stand, t[Am]heny[F]ou s[C-G]tand


(Repeat until fade)

Chords List

Chord: Stand - Rascal Flatts - tab, song lyric, sheet, guitar, ukulele
Maybe you like