Chord/Tab song: Shower Me With Your Love - Surface

Chord,Tablature, lyric, sheet, guitar, ukulele song: Shower Me With Your Love - Surface - ( My [C]heart is[Em7] [Am]filled w[Em]ith so much love ...)

3 months ago22 Surface
--

-----------
E|---0--0---------0--------------------|
B|------------3----3------1--3----0----|
G|0----0---0----0----0----2------------|
D|-------------------------------------|
A|---3--------2-----------0------------|
E|--------------------------------0----|


My [C]heart is[Em7] [Am]filled w[Em]ith so much love



E|0----------------------1-----3-------|
B|----0-1--1---------1-------0---------|
G|--------2------2----------0---0------|
D|-------------------------------------|
A|-------------------------------------|
E|------1----1-------------3-------3---|


and I [F] [G]need someone I can call my own



E|---0--0---------0--------------------|
B|------------3----3------1--3----0----|
G|0----0---0----0----0----2------------|
D|-------------------------------------|
A|---3--------2-----------0------------|
E|--------------------------------0----|


To [C]fall in [Em] [Am]love tha[Em]t's [F]what every one dreaming o f
( Tab from: http://www.guitartabs.cc/tabs/s/surface/shower_me_with_your_love_tab.html )
I know t[G]his feeling oh so strong
Life is [Em] [Am]too s [DAdd9]hort [G]to live alon e
Without [Em] [Am]someo [DAdd9]ne [G]to call my ow n
I will c[F] [G]are for yo u
You w [Em]ill care[F] for m e
Our [F]love wil[G]l live forever

Chorus:
[C]Shower m[Em]e with your love
[Am]Shower m[D]e with y[G]our love that I look for
[C]Shower m[Em]e with your love
[Am]Shower m[D]e with y[C]our love I've been waiting f or

[C]I [Em]close my eyes
And p [Am]ray all [Em]my [F]wishes come t rue
Ev [F]erynight[G] I go to sleep
[C]Until yo[Em]u're [Am]mine I'l[Em]l w [F]ait for you endlessl y
[G]Can't you see
Fairy t [Em]ales t [Am]hey do s[DAdd9]o [G]metimes come tr ue
If you b[Em]e [Am]lieve [Add9]it could[G] h appen to y ou
[G]Like the[F] st [G]ars that s hine
[G]Way up [Em]in the [Am]sky
Our [F]love wil[G]l live forever

(chorus)

Chords List

Chord: Shower Me With Your Love - Surface - tab, song lyric, sheet, guitar, ukulele
Maybe you like