Chord/Tab song: Revelation - Keller Williams

Chord,Tablature, lyric, sheet, guitar, ukulele song: Revelation - Keller Williams - ( Artist - Keller Williams Song - Revelation Tuning: d A F...)

--
Artist - Keller Williams
Song - Revelation

Tuning: d A F C G d

Intro:
Am Bm C Bm Am G F G (x2)

[G]Why should I[Bm] wonder why [Am]anybody [F]wonders about so [G]ma[Bm]ny [Am]thi[F]ng
Like the [Am]soun[Bm]d it come[C]s fr[Bm]om the fetal [G]ground



d|--------------|
A|--5------3----|
F|--5------3h4--|
C|--5------3----|
G|--------------|
D|--------------|


[Am]It tra[C]vels a[Bm]t a high f[G]requency
[Am]It's[Bm] pick[C]ed up [Bm]internall[G]y



d|--------------|
A|--5------3----|
F|--5------3h4--|
C|--5------3----|
G|--------------|
D|--------------|


Not by s[Am]enses, but b[C]y in[Bm]stinc[G]t

Chorus
It's like a[Am] revelation at 7[C]0 m[F]iles an [G]hour



d|---------------------|
A|---------------------|
F|---------------------|
C|--3---2--------------|
G|----------3---2------|
D|------------------3--|


[Am]So fast to the brain, but so [C]slow t[F]o change l[G]anes



d|---------------------|
A|---------------------|
F|---------------------|
C|--3---2--------------|
G|----------3---2------|
D|------------------3--|

( Tab from: http://www.guitartabs.cc/tabs/k/keller_williams/revelation_tab.html )
It's like a[Am] revelation at 7[C]0 m[F]iles an [G]hour



d|---------------------|
A|---------------------|
F|---------------------|
C|--3---2--------------|
G|----------3---2------|
D|------------------3--|


Am C F G Bm Am F
So fast to the brain, but so slow to change lanes

It's a noise it's a sound (3x) Slap shooting forehand

Well it requires your attention
So you intend, but you don't intend



d|--------------|
A|--5------3----|
F|--5------3h4--|
C|--5------3----|
G|--------------|
D|--------------|


To address the situation



d|--------------|
A|--5------3----|
F|--5------3h4--|
C|--5------3----|
G|--------------|
D|--------------|


Of the stimulating noise of the sound

Chorus:
So loopa doo eh lee ba da ba zee jee ba dee
Supa dave ve voo fa ohh yeahh
Oh lee blah bleh bla blee Loopa ba blee . . .

[G]Is n[Bm]ot som[Am]ething [F]you can you hear,
when you put your head up to the ground you can hear it

It's not something you can see,
with your eye or a microscope you can't see it

Well it's an indescribable phenomena
So strong that it bends your antenna



d|--------------|
A|--5------3----|
F|--5------3h4--|
C|--5------3----|
G|--------------|
D|--------------|


Set you're static to clarity
It's so strong it bent my antenna

Chorus



d|-----------------------------------------------------|
A|-----------------------------------------------------|
F|-----------------------------------------------------|
C|--------------7--7---9----------7--9---7-------------|
G|-----7----9------------------7------------9---7------|
D|--7-----------------------7-----------------------7--|

Chords List

Chord: Revelation - Keller Williams - tab, song lyric, sheet, guitar, ukulele
Maybe you like