Chord/Tab song: Pick Up the Pieces

Chord,Tablature, lyric, sheet, guitar, ukulele song: Pick Up the Pieces - ( Pick Up the Pieces by Driving East Tabbed by: fenderb...)

a year ago152 Driving East
--

----------------------------------------------------------------------------

Pick Up the Pieces by Driving East


----------------------------------------------------------------------------

Tabbed by: [email protected]
Email:

Tuning: Regular with CAPO on the FIRST FRET!!!!

This is pick up the pieces. It's a really easy song, and it's fun to play. I've included
intro and the chords that you have to play. Enjoy!



e|----------------------------------------------------------------------------|
B|----------------------------------------------------------------------------|
G|-10-10-8-7---10-8-7-8-7----8-7----7---------7-8-7------------7-8-7----------|
D|-----------10----------10------10---8--8-10-------10-10-8-10-------10-8-----|
A|----------------------------------------------------------------------------|
E|--------------------------------------------------------------------------\-|
e|----------------------------------------------------------------------------|
B|----------------------------------------------------------------------------|
G|-10-10-8-7----10-8-7-8-7----8-7-----8--7-7-------8-7------------------------|
D|-----------10------------10-----10-8--------10-10-----10-8------------------|
A|----------------------------------------------------------------------------|
E|----------------------------------------------------------------------------|


Intro: A E F#m D

Verse 1:

C[A]an we get back to the place in which [E]we started

[F#m]I plan to get away a little while[E]

[A]And we can both get back and have our way with one[E] another

[F#m]And talk about the things that make us smile[E]

Pre-Chorus:

[D]Tonight I'm holding o-n

[E]It's really not your fault

[D]Don't let me g-o[E]

Chorus:

[A]Although I'm reaching for-ever I promise [E]I will

[F#m]pick up the pieces and put them bac[E]k together in you

[A]Turn all of the lights d[E]own low

[D]And play your favorite record so you won't be s[E]leeping alone

(Intro)

(verse)

(Pre-Chorus)

(Chorus)

Bridge: F#m E A F#m E/A

Repeat the Intro, verse, etc. throughout the song. Pretty easy right? See ya later!

| / slide up
| \ slide down
| h hammer-on
| p pull-off
| ~ vibrato
| + harmonic
| x Mute note

Chords List

Chord: Pick Up the Pieces - tab, song lyric, sheet, guitar, ukulele
Maybe you like