Chord/Tab song: Nothing - Papa Roach

Chord,Tablature, lyric, sheet, guitar, ukulele song: Nothing - Papa Roach - ( [Intro Chorus] C#|-------------------------| G#|------...)

2 years ago266 Other Songs Papa Roach
--
[Intro Chorus]



C#|-------------------------|
G#|-------------------------|
E |-------------------------|
B |---9-12-5-2-----9-12-5---|
F#|---9-12-5-2-----9-12-5---|
C#|---9-12-5-2-----9-12-5---|


[Intro]

-Rhythm Guitar-


C#|---------------------------|-----------------------------|
G#|---------------------------|-----------------------------|
E |---------------------------|-----------------------------|
B |---9-9-9-9-9-9-12-12-12-12-|-12-12-5-5-5-5-5-5-5-5-5-5---|
F#|---9-9-9-9-9-9-12-12-12-12-|-12-12-5-5-5-5-5-5-5-5-5-5---|
C#|---9-9-9-9-9-9-12-12-12-12-|-12-12-5-5-5-5-5-5-5-5-5-5---|


-Lead Guitar-


C#|------------------------------------------|------------------------------19~---|
G#|------------------------------------------|-----------------17p15----17b-------|
E |--------------------------------------14b-|-----------------------16-----------|
B |---9-9-12-14-16--19-17-16-14-19-17-16-----|-9-9-12-14-19-16--------------------|
F#|------------------------------------------|------------------------------------|
C#|------------------------------------------|------------------------------------|


[Verse]
("Headlines are monsters that everyone honors...")


C#|----------------------------------|----------------------------------|
G#|----------------------------------|----------------------------------|
E |---12tp-11p-8-h11--12tp-11p-8-h11-|-12tp-11p-8-h11--12tp-11p-8-h11---|
B |----------------------------------|----------------------------------| x2
F#|----------------------------------|----------------------------------|
C#|----------------------------------|----------------------------------|


[Pre-Chorus]



C#|---------------------|-----------------------|-----------------|
G#|---------------------|-----------------------|-----------------|
E |---------------------|-----------------------|-----------------|
B |---2-2-0-2-2-0-2-2-0-|-2-2-0-5-5-5-5-5-5-5-5-|-7-7-7-7-7-8-8---|
F#|---2-2-0-2-2-0-2-2-0-|-2-2-0-5-5-5-5-5-5-5-5-|-7-7-7-7-7-8-8---|
C#|---2-2-0-2-2-0-2-2-0-|-2-2-0-5-5-5-5-5-5-5-5-|-7-7-7-7-7-8-8---|


[Chorus]



C#|-------------------------|-------------------------|
G#|-------------------------|-------------------------|
E |-------------------------|-------------------------|
B |---9-----12-----5-----2--|--9-----12-----5-----2---| x2
F#|---9-----12-----5-----2--|--9-----12-----5-----2---|
C#|---9-----12-----5-----2--|--9-----12-----5-----2---|


[Post-Chorus]

-Rhythm Guitar-


C#|---------------------------|-----------------------------|
G#|---------------------------|-----------------------------|
E |---------------------------|-----------------------------|
B |---9-9-9-9-9-9-12-12-12-12-|-12-12-5-5-5-5-5-5-5-5-5-5---|
F#|---9-9-9-9-9-9-12-12-12-12-|-12-12-5-5-5-5-5-5-5-5-5-5---|
C#|---9-9-9-9-9-9-12-12-12-12-|-12-12-5-5-5-5-5-5-5-5-5-5---|


-Lead Guitar-


C#|------------------------------------------|------------------------------19~---|
G#|------------------------------------------|-----------------17p15----17b-------|
E |--------------------------------------14b-|-----------------------16-----------|
B |---9-9-12-14-16--19-17-16-14-19-17-16-----|-9-9-12-14-19-16--------------------|
F#|------------------------------------------|------------------------------------|
C#|------------------------------------------|------------------------------------|


[Verse]



C#|-----------------|----------------------------------|----------------------------------|
G#|-----------------|----------------------------------|----------------------------------|
E |-----------------|---12tp-11p-8-h11--12tp-11p-8-h11-|-12tp-11p-8-h11--12tp-11p-8-h11---|
B |---9-9-----9-9---|----------------------------------|----------------------------------| x2
F#|---9-9-----9-9---|----------------------------------|----------------------------------|
C#|---9-9-----9-9---|----------------------------------|----------------------------------|


[Pre-Chorus]



C#|---------------------|-----------------------|-----------------|
G#|---------------------|-----------------------|-----------------|
E |---------------------|-----------------------|-----------------|
B |---2-2-0-2-2-0-2-2-0-|-2-2-0-5-5-5-5-5-5-5-5-|-7-7-7-7-7-8-8---| x2
F#|---2-2-0-2-2-0-2-2-0-|-2-2-0-5-5-5-5-5-5-5-5-|-7-7-7-7-7-8-8---|
C#|---2-2-0-2-2-0-2-2-0-|-2-2-0-5-5-5-5-5-5-5-5-|-7-7-7-7-7-8-8---|


[Chorus]



C#|-------------------|-------------------------|---------------------------------|
G#|-------------------|-------------------------|---------------------------------|
E |-------------------|-------------------------|---------------------------------|
B |---9-9-9-9-9-9-9-9-|-12-12-12-12-12-12-12-12-|-5-5-5-5-5-5-5-5-5-5-5-2-2-2-2---| x4
F#|---9-9-9-9-9-9-9-9-|-12-12-12-12-12-12-12-12-|-5-5-5-5-5-5-5-5-5-5-5-2-2-2-2---|
C#|---9-9-9-9-9-9-9-9-|-12-12-12-12-12-12-12-12-|-5-5-5-5-5-5-5-5-5-5-5-2-2-2-2---|


[Outro]



C#|----------------------------------|----------------------------------|
G#|----------------------------------|----------------------------------|
E |---12tp-11p-8-h11--12tp-11p-8-h11-|-12tp-11p-8-h11--12tp-11p-8-h11---|
B |----------------------------------|----------------------------------| x2
F#|----------------------------------|----------------------------------|
C#|----------------------------------|----------------------------------|
C#|----------------------------------|----------------------------------|
G#|----------------------------------|----------------------------------|
E |---14tp-11p-8-h11--14tp-11p-8-h11-|-14tp-11p-8-h11--14tp-11p-8-h11---|
B |----------------------------------|----------------------------------| x2
F#|----------------------------------|----------------------------------|
C#|----------------------------------|----------------------------------|
C#|----------------------------------|----------------------------------|
G#|----------------------------------|----------------------------------|
E |---16tp-11p-8-h11--16tp-11p-8-h11-|-16tp-11p-8-h11--16tp-11p-8-h11---|
B |----------------------------------|----------------------------------| x2
F#|----------------------------------|----------------------------------|
C#|----------------------------------|----------------------------------|
C#|----------------------------------|----------------------------------|
G#|----------------------------------|----------------------------------|
E |---18tp-11p-8-h11--18tp-11p-8-h11-|-18tp-11p-8-h11--18tp-11p-8-h11---|
B |----------------------------------|----------------------------------|
F#|----------------------------------|----------------------------------|
C#|----------------------------------|----------------------------------|
C#|----------------------------------|----------------------------------|
G#|----------------------------------|----------------------------------|
E |---19tp-11p-8-h11--19tp-11p-8-h11-|-19tp-11p-8-h11--19tp-11p-8-h11---|
B |----------------------------------|----------------------------------|
F#|----------------------------------|----------------------------------|
C#|----------------------------------|----------------------------------|

Chords List

Chord: Nothing - Papa Roach - tab, song lyric, sheet, guitar, ukulele
Maybe you like