Chord/Tab song: No One Wants an Alien - Wipers

Chord,Tablature, lyric, sheet, guitar, ukulele song: No One Wants an Alien - Wipers - ( _________________________________________________________...)

--
______________________________________________________________________________
INTRO
_______________________________________________________________________________

GUITAR 1 - Sounds like there is an effect used on these riff sections. Not
entirely sure what it is. But my best guess is a slight tremolo.

x6 x2


e|-0---0-2-0-0---0--0--0--|-0--0-0--0-||
B|-0---0---0-0---3--0--3--|-0--0--0-0-||
G|-0---0---------0--0--0--|-0--0----0-||
D|------------------------|-----------||
A|------------------------|-----------||
E|------------------------|-----------||


x2 x2


|-5---5-7-5-5---5--5--5--|-5---5-7-5-5---5--5--5-3||-3/5---5----5-3-||
|-5---5-5-5-5---8--5--8--|-5---5-5-5-5---8--5--5-3||-3/5-5-5--5-5-3-||
|-5---5-5-------5--5--5--|-5---5-5-------5--5--5-4||-4/5-5----5---4-||
|------------------------|------------------------||----------------||
|------------------------|------------------------||----------------||
|------------------------|------------------------||----------------||


_______________________________________________________________________________
VERSE
_______________________________________________________________________________

[Em] Looking from the [G]inside you[Em] feel
Nothing on the [G]outside is [C]real...
Does it[G] really show?
[Em] All the other[G] kids put you[Em] down
No one ever [G]wants you a[C]round
No one[G] want's an alien...[Em]
______________________________________________________________________
|
(subtle notes embedded in the chord progression. A and C only.) |
|
A C |


e|-------------------|-----------------|| |
B|-------------------|-1-1-1-1-1-1-1-1-|| |
G|-2-2-2-2-2-4-2-2-2-|-0-0-0-0-0-0-0-0-|| |
D|-2-2-2-2-2-2-2-2-2-|-2-2-2-0-0-0-0-0-|| |
A|-0-0-0-0-0-0-0-0-0-|-3-3-3-3-3-3-3-3-|| |
E|-------------------|-----------------|| |

|
______________________________________________________________________|

[A] Never ever [C]thought you could[A] feel
'Cause everyt[C]hing around you stands [F]still
C G / A G / A - (slide from G to A .
But will they ever know? Play them as barre chords)
[Em] Dreaming of[G] a place far a[Em]way
Know that you were [G]born here a [C]stray
Does it [G]really show?
[Em] Can't make [G]it playing their [Em]games
When everyon[G]e plays it all the [C]same
No one [G]wants an alien[Em]
[A] Never ever [C]thought you could[A] feel
'Cause every[C]thing around you stands [F]still
But will they [C]ever know?[G][/][A][G][/][A]

______________________________________________________________________
INTERLUDE
______________________________________________________________________

GUITAR 1 - Essentially same as the intro but is strummed more, for dynamic
effect. I've loosely tabbed it as i hear it. Play however you
feel is better.
x5


e|-0---0-0-0-2-0-0---0-0--0-0--0--|
B|-0---0-0-0-0-0-0---3-3--0-0--3--|
G|-0---0---0-0-------0-0--0-0--0--|
D|--------------------------------|
A|--------------------------------|
E|--------------------------------|
|-0---0-0-0-2-0-0---0-0--0--0-0-||-0--0-2-2-2-2-2-2-2-2-2-2-2-2-||
|-0---0-0-0-0-0-0---3-3--0--0-0-||-0--0-0-0-0-0-0-0-0-0-0-0-0-0-||
|-0---0---0-0-------0-0--0--0-0-||-0--0-0-0-0-0-0-0-0-0-0-0-0-0-||
|-------------------------------||------------------------------||
|-------------------------------||------------------------------||
|-------------------------------||------------------------------||


x2 x2


|-5---5-5-5-7-5-5---5-5--5-5--5--|-5---5-7-5-5---5--5--5-3||-3/5---5----5-3-||
|-5---5-5-5-5-5-5---8-8--5-5--8--|-5---5-5-5-5---8--5--5-3||-3/5-5-5--5-5-3-||
|-5---5---5---------5-5--5-5--5--|-5---5-5-------5--5--5-4||-4/5-5----5---4-||
|--------------------------------|------------------------||----------------||
|--------------------------------|------------------------||----------------||
|--------------------------------|------------------------||----------------||

_______________________________________________________________________________
VERSE
_______________________________________________________________________________

[Em] Looking from the [G]inside you[Em] feel
Nothing on the [G]outside is [C]real
Does it[G] really show?
[Em] The vision [G]keeps coming at you [Em]still
'Cause something [G]deep inside you is[C] real
But will they [G]ever know?[Em]
[A] Never ever[C] thought you could [A]feel
'Cause every[C]thing around you stands [F]still
No one [C]wants an alien[G][/][A][G][/][A]
_______________________________________________________________________________
OUTRO
_______________________________________________________________________________

x5


e|-0---0-0-0-2-0-0---0-0--0-0--0--|
B|-0---0-0-0-0-0-0---3-3--0-0--3--|
G|-0---0---0-0-------0-0--0-0--0--|
D|--------------------------------|
A|--------------------------------|
E|--------------------------------|
|-0---0-0-0-2-0-0---0-0--0--0-0-|-------0--0-0-0-0-||
|-0---0-0-0-0-0-0---3-0--0--0-0-|-------0--0-0-0-0-||
|-0---0---0-0-------0-0--0--0-0-|-------x--x-x-x-x-||
|-------------------------------|-2-2-2-2--2-2-2-2-||
|-------------------------------|-2-2-2-2--2-2-2-2-||
|-------------------------------|-0-0-0-0--0-0-0-0-||


_______________________________________________________________________________

_______________________________________________________________________________

Chords List

Chord: No One Wants an Alien - Wipers - tab, song lyric, sheet, guitar, ukulele
Maybe you like