Chord/Tab song: Kristina - Howie Day

Chord,Tablature, lyric, sheet, guitar, ukulele song: Kristina - Howie Day - ( -------------------------------------------------------...)

3 years ago1004 Australia (2000) Howie Day
--
-------------------------------------------------------------------------------

Kristina - Howie Day


-------------------------------------------------------------------------------

Tabbed by: Jordan Elek
Email: burnincheez@aim.com

Tuning: Standard (EADGBe)

This is based primarily off a live version of the song, but the album version
on Australia is pretty much the same (with added effects).

Chords Used:

[D] [Dsus2] [Bm] [Em9] [Gm7] [A7] [Aadd9] [C] [G] [Cmaj7] [Gmaj] [D7]

e|--2-----0-----0-----0-----3-----0-----0-----0-----3-----0-----3-----2------|
B|--3-----3-----3-----3-----3-----2-----0-----1-----0-----0-----3-----1------|
G|--2-----2-----4-----0-----3-----0-----6-----0-----0-----0-----0-----2------|
D|--0-----0-----4-----4-----3-----2-----7-----2-----0-----2-----0-----0------|
A|--------------2-----2-----5-----0-----7-----3-----2-----3-----2------------|
E|--------------------------3-----------------------3-----------3------------|


Riff1: (intro, verses)
strum pattern is approximate

[D] [Dsus2] [Bm] [Em9] [Gm7] [A7]

e|--2---2--0-0---0--0--0-0---0---0--0--0--0-0---3---3--3-3--3-3---0--0--0-0--|
B|--3---3--3-3---3--3--3-3---3---3--3--3--3-3---3---3--3-3--3-3---2--2--2-2--|
G|--2---2--2-2---2--2--2-2---4---4--0--0--0-0---3---3--3-3--3-3---0--0--0-0--|
D|--0---0--0-0---0--0--0-0---4---4--4--4--4-4---3---3--3-3--3-3---2--2--2-2--|
A|---------------------------2---2--2--2--2-2---5---5--5-5--5-5---0--0--0-0--|
E|----------------------------------------------3---3--3-3--3-3--------------|


Riff2: (end of verse 1, bridge, outro)

[D] [Aadd9] [C] [G]

e|--2--2-0----0--0-0-0-0-0---0--0-0-0-3--|
B|--3--3-0----0--0-0-0-0-0---1--1-1-1-0--|
G|--2--2-2/6--6--6-6-6-6-6---0--0-0-0-0--|
D|--0--0------7--7-7-7-7-7---2--2-2-2-0--|
A|------------7--7-7-7-7-7---3--3-3-3-2--|
E|------------------------------------3--|


Riff3: (first part of chorus)

[Cmaj7] [Gmaj] [D] [Dsus2] [D]

e|--0---0--0-0---0--0-0--3---3--3-3---3--3-3--2---2--0-0---0--0-0h2-2--2-2---|
B|--0---0--0-0---0--0-0--3---3--3-3---3--3-3--3---3--3-3---3--3-3---3--3-3---|
G|--0---0--0-0---0--0-0--0---0--0-0---0--0-0--2---2--2-2---2--2-2---2--2-2---|
D|--2---2--2-2---2--2-2--0---0--0-0---0--0-0--0---0--0-0---0--0-0---0--0-0---|
A|--3---3--3-3---3--3-3--2---2--2-2---2--2-2---------------------------------|
E|-----------------------3---3--3-3---3--3-3---------------------------------|


Riff4: (second part of chorus)

[Cmaj7] [Gmaj] [D] [Dsus2] [D7]

e|--0---0--0-0---0--0-0--3---3--3-3---3--3-3--2---2--0-0---0--0-0---2--2-2---|
B|--0---0--0-0---0--0-0--3---3--3-3---3--3-3--3---3--3-3---3--3-3---1--1-1---|
G|--0---0--0-0---0--0-0--0---0--0-0---0--0-0--2---2--2-2---2--2-2---2--2-2---|
D|--2---2--2-2---2--2-2--0---0--0-0---0--0-0--0---0--0-0---0--0-0---0--0-0---|
A|--3---3--3-3---3--3-3--2---2--2-2---2--2-2---------------------------------|
E|-----------------------3---3--3-3---3--3-3---------------------------------|

Chords List

Chord: Kristina - Howie Day - tab, song lyric, sheet, guitar, ukulele
Maybe you like