Chord/Tab song: Just Say When - Nothing More

Chord,Tablature, lyric, sheet, guitar, ukulele song: Just Say When - Nothing More - ( Tuning : Open C (C-G-C-E-G-C) [Intro] c|--------------...)

--
Tuning : Open C (C-G-C-E-G-C)

[Intro]


c|---------------------------------------|-----(0)-------------------------------|
G|---------------------------------------|-----(0)-------------------------------|
E|------8---------8---8----12---12-12\5--|------5---------5---5---5---5-5/8------|
C|------0---------0---0----0----0--0-----|------0---------0---0---0---0-0--------|
G|------x---------x---x----x----x--x-----|------x---------x---x---x---x-x--------|
C|--9---9-------9-9---9-9--12---12-12\5--|--5---5-------5-5---5-5-5---5-5/9------|
c|---------------------------------------|-----(0)-------------------------------|
G|---------------------------------------|-----(0)-------------------------------|
E|------8---------8---8----12---12-12\5--|------5---------5----------------------|
C|------0---------0---0----0----0--0-----|------0---------0-----------0-0--------|
G|------x---------x---x----x----x--x-----|------x---------x---x-x-x-x-x-x--------|
C|--9---9-------9-9---9-9--12---12-12\5--|--5---5-------5-5---5-5-5-5-5-5/9------|


[Verse 1]


c|---------------------------------------|-----(0)-------------------------------|
G|---------------------------------------|-----(0)-------------------------------|
E|------8---------8---8----12---12-12\5--|------5---------5---5---5---5-5/8------|
C|------0---------0---0----0----0--0-----|------0---------0---0---0---0-0--------|
G|------x---------x---x----x----x--x-----|------x---------x---x---x---x-x--------|(3x)
C|--9---9-------9-9---9-9--12---12-12\5--|--5---5-------5-5---5-5-5---5-5/9------|
c|---------------------------------------|-----(0)-------------------------------|
G|---------------------------------------|-----(0)-------------------------------|
E|------8---------8---8----12---12-12\5--|------5---------5---5---5---5-5/7------|
C|------0---------0---0----0----0--0-----|------0---------0---0---0---0-0--------|
G|------x---------x---x----x----x--x-----|------x---------x---x---x-x-x-x--------|
C|--9---9-------9-9---9-9--12---12-12\5--|--5---5-------5-5---5-5-5-5-5-5/7------|


[Pre-Chorus]


c|------------------------------------|---------------------------------------|
G|------------------------------------|---------------------------------------|
E|------7---------7---7----7---7-7\5--|------5---------5---5---5---5-5/7------|
C|------0---------0---0----0---0-0----|------0---------0---0---0---0-0--------|
G|------x---------x---x----x---x-x----|------x---------x---x---x---x-x--------|
C|--7---7-------7-7---7-7--7---7-7\5--|--5---5-------5-5---5-5-5---5-5/7------|
c|------------------------------------|-----(0)-------------------------------|
G|------------------------------------|-----(0)-------------------------------|
E|------7---------7---7----7---7-7\5--|------5--------------------------------|
C|------0---------0---0----0---0-0----|------0--------------------------------|
G|------x---------x---x----x---x-x----|------x--------------------------------|
C|--7---7-------7-7---7-7--7---7-7\5--|--5---5--------------------------------|


[Chorus 1]
> > > > > > > >


c|------0-------0-------0-------0-----|------0-------0-------0-------0-----|
G|------0-------0-------0-------0-----|------0-------0-------0-------0-----|
E|--0-0-0-0-0-0-0-0-0-0-0-0-0-0-0-0---|--0-0-0-0-0-0-0-0-0-0-0-0-0-0-0-0---|
C|--0-0-0-0-0-0-0-0-0-0-0-0-0-0-0-0---|--0-0-0-0-0-0-0-0-0-0-0-0-0-0-0-0---|
G|--0-0-0-0-0-0-0-0-0-0-0-0-0-0-0-0---|--x-x-x-x-x-x-x-x-x-x-x-x-x-x-x-x---|
C|--0-0-0-0-0-0-0-0-0-0-0-0-0-0-0-0---|--4-4-4-4-4-4-4-4-4-4-4-4-4-4-4-4---|


> > > > > >


c|--------0-----------0-----------0-----------0------|------0---------0-----0-0-0---------|
G|--------0-----------0-----------0-----------0------|------0---------0-----0-0-0---------|
E|--x--x--x--x--x--x--x--x--x--x--x--x--x--x--x--x---|--x-x-x-x-x-x-x-x---x-x-x-x-x-x-x---|
C|--12-12-12-12-12-12-12-12-11-11-11-11-11-11-11-11--|--9-9-9-9-9-9-9-7---7-7-7-7-x-x-x---|
G|--9--9--9--9--9--9--9--9--7--7--7--7--7--7--7--7---|--5-5-5-5-5-5-5-5---5-5-5-5-x-x-x---|
C|--9--9--9--9--9--9--9--9--7--7--7--7--7--7--7--7---|--5-5-5-5-5-5-5-5---5-5-5-5-x-x-x---|


> > > > > > > >


c|------0-------0-------0-------0-----|------0-------0-------0-------0-----|
G|------0-------0-------0-------0-----|------0-------0-------0-------0-----|
E|--0-0-0-0-0-0-0-0-0-0-0-0-0-0-0-0---|--0-0-0-0-0-0-0-0-0-0-0-0-0-0-0-0---|
C|--0-0-0-0-0-0-0-0-0-0-0-0-0-0-0-0---|--0-0-0-0-0-0-0-0-0-0-0-0-0-0-0-0---|
G|--0-0-0-0-0-0-0-0-0-0-0-0-0-0-0-0---|--x-x-x-x-x-x-x-x-x-x-x-x-x-x-x-x---|
C|--0-0-0-0-0-0-0-0-0-0-0-0-0-0-0-0---|--4-4-4-4-4-4-4-4-4-4-4-4-4-4-4-4---|


> > > > > >


c|--------0-----------0-----------0-----------0------|------0-------0-0--|
G|--------0-----------0-----------0-----------0------|------0-------0-0--|
E|--x--x--x--x--x--x--x--x--x--x--x--x--x--x--x--x---|--x-x-x-x-x-x-x-x--|
C|--12-12-12-12-12-12-12-12-11-11-11-11-11-11-11-11--|--9-9-9-9-9-9-9-12-|
G|--9--9--9--9--9--9--9--9--7--7--7--7--7--7--7--7---|--5-5-5-5-5-5-5-9--|
C|--9--9--9--9--9--9--9--9--7--7--7--7--7--7--7--7---|--5-5-5-5-5-5-5-9--|

The...


c|----(0)-------------------0--------------------|--0----------|
G|----(0)-------------------0--------------------|--0----------|
E|--------------------------x--------------------|--0----------|
C|----(12)------------------11-------------------|--0----------|
G|----(9)-------------------7--------------------|--x----------|
C|----(9)-------------------7--------------------|--5----------|

...glass was half full when we stopped pouring in ...so just say...



c|---------------------------------------|-----(0)-------------------------------|
G|---------------------------------------|-----(0)-------------------------------|
E|------8---------8---8----12---12-12\5--|------5---------5----------------------|
C|------0---------0---0----0----0--0-----|------0---------0-----------0-0--------|
G|------x---------x---x----x----x--x-----|------x---------x---x-x-x-x-x-x--------|
C|--9---9-------9-9---9-9--12---12-12\5--|--5---5-------5-5---5-5-5-5-5-5/9------|

...when

[Verse 2]


c|---------------------------------------|-----(0)-------------------------------|
G|---------------------------------------|-----(0)-------------------------------|
E|------8---------8---8----12---12-12\5--|------5---------5---5---5---5-5/8------|
C|------0---------0---0----0----0--0-----|------0---------0---0---0---0-0--------|
G|------x---------x---x----x----x--x-----|------x---------x---x---x---x-x--------|(2x)
C|--9---9-------9-9---9-9--12---12-12\5--|--5---5-------5-5---5-5-5---5-5/9------|


N.H.(let ring)


c|---------------------------------------|---------------------------------------|
G|------------------------------------|---------------------------------------|
E|--8---------------------------------|---------------------------------------|
C|--0---------------------------------|---------------------------------------|
G|--x------------------------------------|--10-----------------------------------|
C|--9------------------------------------|---------------------------------------|


> > > > > > >


c|---------------------------------------|---------------------------------------|
G|---------------------------------------|---------------------------------------|
E|------------------------------0-0-0-0--|--5---5---5-5-5-3-----3---3-0-x-x------|
C|------------------------------0-0-0-0--|--0---0---0-0-0-0-----0---0-0-x-x------|
G|------------------x--x--x--x--x-x-x-x--|--x---x---x-x-x-x-----x---x-x-x-x------|
C|--9-9-9-9-9-9-9-9-11-11-11-11-4-4-4-4--|--5---5---5-5-5-5-----5---5-5-x-x------|

P.M.

[Chorus 2]
> > > > > > > >


c|------0-------0-------0-------0-----|------0-------0-------0-------0-----|
G|------0-------0-------0-------0-----|------0-------0-------0-------0-----|
E|--0-0-0-0-0-0-0-0-0-0-0-0-0-0-0-0---|--0-0-0-0-0-0-0-0-0-0-0-0-0-0-0-0---|
C|--0-0-0-0-0-0-0-0-0-0-0-0-0-0-0-0---|--0-0-0-0-0-0-0-0-0-0-0-0-0-0-0-0---|
G|--0-0-0-0-0-0-0-0-0-0-0-0-0-0-0-0---|--x-x-x-x-x-x-x-x-x-x-x-x-x-x-x-x---|
C|--0-0-0-0-0-0-0-0-0-0-0-0-0-0-0-0---|--4-4-4-4-4-4-4-4-4-4-4-4-4-4-4-4---|


> > > > > >


c|--------0-----------0-----------0-----------0------|------0---------0-----0-0-0---------|
G|--------0-----------0-----------0-----------0------|------0---------0-----0-0-0---------|
E|--x--x--x--x--x--x--x--x--x--x--x--x--x--x--x--x---|--x-x-x-x-x-x-x-x---x-x-x-x-x-x-x---|
C|--12-12-12-12-12-12-12-12-11-11-11-11-11-11-11-11--|--9-9-9-9-9-9-9-7---7-7-7-7-x-x-x---|
G|--9--9--9--9--9--9--9--9--7--7--7--7--7--7--7--7---|--5-5-5-5-5-5-5-5---5-5-5-5-x-x-x---|
C|--9--9--9--9--9--9--9--9--7--7--7--7--7--7--7--7---|--5-5-5-5-5-5-5-5---5-5-5-5-x-x-x---|


> > > > > > > >


c|------0-------0-------0-------0-----|------0-------0-------0-------0-----|
G|------0-------0-------0-------0-----|------0-------0-------0-------0-----|
E|--0-0-0-0-0-0-0-0-0-0-0-0-0-0-0-0---|--0-0-0-0-0-0-0-0-0-0-0-0-0-0-0-0---|
C|--0-0-0-0-0-0-0-0-0-0-0-0-0-0-0-0---|--0-0-0-0-0-0-0-0-0-0-0-0-0-0-0-0---|
G|--0-0-0-0-0-0-0-0-0-0-0-0-0-0-0-0---|--x-x-x-x-x-x-x-x-x-x-x-x-x-x-x-x---|
C|--0-0-0-0-0-0-0-0-0-0-0-0-0-0-0-0---|--4-4-4-4-4-4-4-4-4-4-4-4-4-4-4-4---|


> > > > > > >


c|--------0-----------0-----------0-----------0------|----------------0--|
G|--------0-----------0-----------0-----------0------|----------------0--|
E|--x--x--x--x--x--x--x--x--x--x--x--x--x--x--x--x---|--x---------x-x-x--|
C|--12-12-12-12-12-12-12-12-11-11-11-11-11-11-11-11--|--9-----9-9-9-9-12-|
G|--9--9--9--9--9--9--9--9--7--7--7--7--7--7--7--7---|--5-5-5-5-5-5-5-9--|
C|--9--9--9--9--9--9--9--9--7--7--7--7--7--7--7--7---|--5-5-5-5-5-5-5-9--|

The...
> >


c|--0-----------0------0----0-----------0--------0-0-|------0---0-0---0-----------0-0-0---|
G|--0-----------0------0----0-----------0--------0-0-|--0---0---0-0---0-------0-0-0-0-0---|
E|--x-----------x------x----x-----------x--------x-x-|--x---x---x-x-x-x---x-x-x-x-x-x-x---|
C|--12----------12-----12---11----------11-------x-x-|--9---9---9-9-9-7---7-7-7-7-7-7-7---|
G|--9-----9-----9---9--9----7-----7-----7-----7--7-7-|--5---5---5-5-5-5-5-5-5-5-5-5-5-5---|
C|--9-----9-----9---9--9----7-----7-----7-----7--7-7-|--5---5---5-5-5-5-5-5-5-5-5-5-5-5---|

...glass was half full when we stopped pouring in ...so just say...

[Bridge]
> > > > > > > >


c|--0-0---0-0-0---0-0-0---0-0-0---0--|--0-0---0-0-0---0-0-0---0-0-0---0---|
G|--0-0---0-0-0---0-0-0---0-0-0---0--|--0-0---0-0-0---0-0-0---0-0-0---0---|
E|--x-x---x-x-x---x-x-x---x-x-x---x--|--x-x---x-x-x---x-x-x---x-x-x---x---|
C|--7-7---7-7-7---7-7-7---7-7-7---7--|--6-6---6-6-6---6-6-6---6-6-6---6---|(3x)
G|--5-5---5-5-5---5-5-5---5-5-5---5--|--2-2---2-2-2---2-2-2---2-2-2---2---|
C|--5-5---5-5-5---5-5-5---5-5-5---5--|--2-2---2-2-2---2-2-2---2-2-2---2---|


> > > >


c|------0-------0-------0-------0----|------0---0-----0---0---0-0-0-------|
G|------0-------0-------0-------0----|------0---0-----0---0---0-0-0-------|
E|--x-x-x-x-x-x-x-x-x-x-x-x-x-x-x-x--|--x-x-x-x-x-x-x-x-x-x-x-x-x-x-x-x---|
C|--9-9-9-9-9-9-9-9-9-9-9-9-9-9-9-9--|--8-8-8-8-8-8-8-8-8-8-8-8-8-8-x-x---|
G|--5-5-5-5-5-5-5-5-5-5-5-5-5-5-5-5--|--5-5-5-5-5-5-5-5-5-5-5-5-5-5-x-x---|
C|--5-5-5-5-5-5-5-5-5-5-5-5-5-5-5-5--|--5-5-5-5-5-5-5-5-5-5-5-5-5-5-x-x---|


[Chorus 3]
> > > > > > > >


c|------0-------0-------0-------0-----|------0-------0-------0-------0-----|
G|------0-------0-------0-------0-----|------0-------0-------0-------0-----|
E|--0-0-0-0-0-0-0-0-0-0-0-0-0-0-0-0---|--0-0-0-0-0-0-0-0-0-0-0-0-0-0-0-0---|
C|--0-0-0-0-0-0-0-0-0-0-0-0-0-0-0-0---|--0-0-0-0-0-0-0-0-0-0-0-0-0-0-0-0---|
G|--0-0-0-0-0-0-0-0-0-0-0-0-0-0-0-0---|--x-x-x-x-x-x-x-x-x-x-x-x-x-x-x-x---|
C|--0-0-0-0-0-0-0-0-0-0-0-0-0-0-0-0---|--4-4-4-4-4-4-4-4-4-4-4-4-4-4-4-4---|


> > > > > >


c|--------0-----------0-----------0-----------0------|------0---------0-----0-0-0---------|
G|--------0-----------0-----------0-----------0------|------0---------0-----0-0-0---------|
E|--x--x--x--x--x--x--x--x--x--x--x--x--x--x--x--x---|--x-x-x-x-x-x-x-x---x-x-x-x-x-x-x---|
C|--12-12-12-12-12-12-12-12-11-11-11-11-11-11-11-11--|--9-9-9-9-9-9-9-7---7-7-7-7-x-x-x---|
G|--9--9--9--9--9--9--9--9--7--7--7--7--7--7--7--7---|--5-5-5-5-5-5-5-5---5-5-5-5-x-x-x---|
C|--9--9--9--9--9--9--9--9--7--7--7--7--7--7--7--7---|--5-5-5-5-5-5-5-5---5-5-5-5-x-x-x---|


> > > > > > > >


c|------0-------0-------0-------0-----|------0-------0-------0-------0-----|
G|------0-------0-------0-------0-----|------0-------0-------0-------0-----|
E|--0-0-0-0-0-0-0-0-0-0-0-0-0-0-0-0---|--0-0-0-0-0-0-0-0-0-0-0-0-0-0-0-0---|
C|--0-0-0-0-0-0-0-0-0-0-0-0-0-0-0-0---|--0-0-0-0-0-0-0-0-0-0-0-0-0-0-0-0---|
G|--0-0-0-0-0-0-0-0-0-0-0-0-0-0-0-0---|--x-x-x-x-x-x-x-x-x-x-x-x-x-x-x-x---|
C|--0-0-0-0-0-0-0-0-0-0-0-0-0-0-0-0---|--4-4-4-4-4-4-4-4-4-4-4-4-4-4-4-4---|


> > > > > > >


c|--------0-----------0-----------0-----------0------|------0---0---0-0--|
G|--------0-----------0-----------0-----------0------|------0---0---0-0--|
E|--x--x--x--x--x--x--x--x--x--x--x--x--x--x--x--x---|--x-x-x-x-x-x-x-x--|
C|--12-12-12-12-12-12-12-12-11-11-11-11-11-11-11-11--|--9-9-9-9-9-9-9-12-|
G|--9--9--9--9--9--9--9--9--7--7--7--7--7--7--7--7---|--5-5-5-5-5-5-5-9--|
C|--9--9--9--9--9--9--9--9--7--7--7--7--7--7--7--7---|--5-5-5-5-5-5-5-9--|

The...


c|----(0)-------------------0--------------------|--0----------|
G|----(0)-------------------0--------------------|--0----------|
E|--------------------------x--------------------|--0----------|
C|----(12)------------------11-------------------|--0----------|
G|----(9)-------------------7--------------------|--x----------|
C|----(9)-------------------7--------------------|--5----------|

...glass was half full when we stopped pouring in ...so just say...

[Outro]


c|---------------------------------------|-----(0)-------------------------------|
G|---------------------------------------|-----(0)-------------------------------|
E|------8---------8---8----12---12-12\5--|------5---------5---5---5---5-5--------|
C|------0---------0---0----0----0--0-----|------0---------0---0---0---0-0--------|
G|------x---------x---x----x----x--x-----|------x---------x---x---x---x-x--------|
C|--9---9-------9-9---9-9--12---12-12\5--|--5---5-------5-5---5-5-5---5-5/9------|

...when
N.H.


c|---------------------------------------|--------------|
G|---------------------------------------|-----------|
E|------8---------8---8----12---12-12\5--|-----------|
C|------0---------0---0----0----0--0-----|-----------|
G|------x---------x---x----x----x--x-----|------x-------|
C|--9---9-------9-9---9-9--12---12-12\5--|--5-----------|

Chords List

Chord: Just Say When - Nothing More - tab, song lyric, sheet, guitar, ukulele
Maybe you like