Chord/Tab song: Hydra - Showbread

Chord,Tablature, lyric, sheet, guitar, ukulele song: Hydra - Showbread - ( "Hydra" from "Who Can Know It?" Tabbed By: Scott C. Stan...)

--
"Hydra" from "Who Can Know It?"
Tabbed By: Scott C.

Standard tuning

0:00 Intro 2x
Decisions are a vacuum...


e|------0-----0----0-----3------1------------------------------------|
B|------1-----0----0-----3------2------------------------------------|
G|------0-----0----4-----0------1------------------------------------|
D|----2------2----4-----0------0-------------------------------------|
A|--3------2-----2-----2------0--------------------------------------|
E|-------------------------------------------------------------------|

[C] [Em] [B] [G] [D]


e|------0-----3------------------------------------------------------|
B|------1-----3------------------------------------------------------|
G|------0-----0------7-----------------------------------------------|
D|----2------0-------7-------2---------------------------------------|
A|--3------2---------5-------2---------------------------------------|
E|---------------------------0---------------------------------------|

C G D5 12x E 4x

0:36 2x, 1:39, 2:40 2x Chords >Riff ARiff BRiff CRiff ARiff BRiff CRiff ARiff B<

3:42 (bass only)

Not perfect, but close. Go to showbread.net, download the multi-track files from the
songs and listen to just the guitars to fine tune this as needed.

Thanks.

Chords List

Chord: Hydra - Showbread - tab, song lyric, sheet, guitar, ukulele
Maybe you like