Chord/Tab song: Bonedriven - Bush

Chord,Tablature, lyric, sheet, guitar, ukulele song: Bonedriven - Bush - ( Song: BONEDRIVEN Band: BUSH LYRICS AND MUSIC: GAVIN ROSSD...)

--
Song: BONEDRIVEN
Band: BUSH
LYRICS AND MUSIC: GAVIN ROSSDALE
Tabbed by: Chris Allen

This is one of the better songs off of the new CD "RAZORBLADE SUITCASES" by BUSH.
I heard the song last February at Lehigh University when BUSH played there.
I heard it then and had waited to hear it again ever since. When i got the CD
it was the first song i learned. This is my first attempt at tabbing so try to
understand it. Comments are appreciated.

intro


E---------------------------------------------------------------------
B----------- 0 -------------------------------------------------------
G----------------------- 0 -------------------------------------------
D------- 2 --------- 2 -----------------------------------------------
A--- 0 --------- 3 --------- 2 --- 7 - 7 - 7 - 7 --- 5 -- 5/9 --------
E---------------------------------------------------------------------

(4th time through stop ^ here)
"just a wish away...."
verse


E---------------------------------------------------------------------
B----------- 0 -------------------------------------------------------
G----------------------- 0 ------- 0 ----- 0 -------------------------
D------- 2 --------- 2 --------------- 0 ----- 0 ---------------------
A--- 0 --------- 3 ---------- 2 --------------------------------------
E---------------------------------------------------------------------


verse end
after playing verse about 3 times...play this 4x then verse 1 more time


E---------------------------------------------------------------------
B----------- 0 ------------------------------------ 3/5 -- 0 ---------
G----------------------- 0 ------ 0 ---------- 0 ---------------------
D------- 2 --------- 2 -------------- 0 -- 0 -------------------------
A--- 0 --------- 3 ---------- 2 --------------------------------------
E---------------------------------------------------------------------

"say you will..."
chorus (no time for times chord is strummed, but you can figure it out)


E---------------------------------------------------------------------
B---------------------------------------------------------------------
G--------------------------- 5 ---------------------------------------
D--- 5 --- 2 --- 5 --- 2 --- 5 ---------------------------------------
A--- 5 --- 2 --- 5 --- 2 --- 3 ---------------------------------------
E--- 3 --- 0 --- 3 --- 0 ---------------------------------------------

"bonedriven, bonedriven, see we're..."

chorus end 1 chorus begin 1 chorus end 1


E------- E------------ E------------
B------- B------------ B------------
G-- 9 -- G-- 5 -- 4 -- G-- 7 -- 9 --
D-- 9 -- D-- 5 -- 4 -- D-- 7 -- 9 --
A-- 7 -- A-- 3 -- 2 -- A-- 5 -- 7 --
E------- E------------ E------------


here's the order that they play it in.

intro 4x
verse 3x
verse end 4x
verse 1x
chorus 1x
chorus end 1x
verse 3x
verse end 4x
verse 1x
chorus begin 1 2x
chorus 2x
chorus end 1 3x
intro 2x
::orchestra solo::
verse 4x
chorus 2x
::orchestra end::

here's the lyrics

We're just a wish away
27th letter
much maligned
beat me clever
say you will
nevermind
open up
open wide

Bonedriven
Bonedriven,
see we're taking all the life

to all pollutants
shave your face
we're all confusion
we're all the rage
isolate
crowded out
all that's left
inside out

heaven knows who walks away
heaven knows who walks, who walks

bonedriven
bonedriven
see we're taking all the life
bonedriven
bonedriven
see we're taking all the life

i was wrong but i will wait
i was wrong and i will wait
i was wrong and i will, i will, i will wait

a thousand lamps
won't lift the dark
rest of our lives
might have already passed

bonedriven
bonedriven
see we're taking all the life
bonedriven
bonedriven
see we're taking all the life
see we're taking all the life

Bush-Bonedriven
tabbed by
Shawn Robinson(Personalh@hotmail.com)

Key
\slide
hhammeron
ppull off
xmute string
^bend note
~vibrate
p.m.palm mute
()ghost note

Guitar 1(slight Dist)


E-----------------------------
B-----0-----------------------
G-----------------------------
D---2-----2---1\2-2-2-2-2-2\4- 3x
A-0-----3---2-----------------
E-----------------------------
RIFF A-----------------------


Verse 1


E-------------------------------------------------------
B-----0-------------0---0---0-----0-----0------0---0----
G---------------------------------0---------------------
D---2-------------2-------------2-----2----------------2
A-0-----3-2-2-2-0-----3---2---0-----0------3-2---2---0--
E-------------------------------------------------------
E-----0-------------------------
B-----0---0---0---0-----0-0-0-0-
G-------------------------------
D---2---------------------------
A-0-----3---2---2---2-2---------
E-------------------------------


Guitar 1(slight dist)


E-----0-------------
B-----0---0---0---0-
G-------------------
D---2---------------
A-0-----3---2---2---
E-------------------


Guitar 1(fills with this)
G-7\9\4 4x
RIFF B-

Guitar 1(cont)


E----------------- ----------------------
B-----0---0---0-0- -----0---0----0-------
G----------------- reapeat-----4----------0-----
D---2------------- ---2------------------
A-0-----3---2----- -0-----3----2------2~-
E----------------- ----------------------
RIFF C----------- RIFF D----------------

Chorus
Guitar 1(Dist)


E-3-x-3-3-----3-x-3-3-----------
B-3-x-3-3---0-3-x-3-3-----------
G-4-x-4-4---4-4-x-4-4-5-5-5-(5)-
D-5-x-5-5-----5-x-5-5-5-5-5-(5)-
A-5-x-5-5-2---5-x-5-5-3-3-3-(3)-
E-3-x-3-3-0---3-x-3-3-----------
RIFF E------ RIFF F------------


Verse 2
Guitar 1(Slight Dist)


E-------------------------------------------------------
B-----0---------------------0---0---0-----------0---0---
G-----0---0---0---0---------0---0---0---------------0---
D---2---2-----------------2-------------------2---------
A-0-----3---3---2---2-0-0-----3---2---2-2-0-0-----3---2-
E-------------------------------------------------------
E-----------------------
B-0-----------0---0---0-
G-0-----------0---------
D-----------2-2--------- (RIFF B over this 4 times)
A---2-2-0-0-----3---2---
E-----------------------


RIFF C 3x
RIFF D 1x

Interlude
Guitar 1(Dist)


E-------------------------------------------------------
B-------------------------------------------------------
G-5-5-5-5-5-5-5-4-4-4-4-4-4-4-4-4-4-4-4-4-4-4-4-4-4-4-4-
D-5-5-5-5-5-5-5-4-4-4-4-4-4-4-4-4-4-4-4-4-4-4-4-4-4-4-4-
A-3-3-3-3-3-3-3-2-2-2-2-2-2-2-2-2-2-2-2-2-2-2-2-2-2-2-2-
E-------------------------------------------------------
P.M.--- P.M.----- P.M.-----------


RIFF E 2x
RIFF F 1x
RIFF E 2x
RIFF F 1x

I was wrong...
Guitar 1(Dist) I think this is it


E-0-------0---------------------------------------------
B-0-------0---------------------------------------------
G-9-9-9-9-9-11-11-11-11-11-11-11-11-11-11-11-11-11-11-11
D-9-9-9-9-9-11-11-11-11-11-11-11-11-11-11-11-11-11-11-11
A-7-7-7-7-7--9--9--9--9--9--9--9--9--9--9--9--9--9--9--9
E---------------------------------------------P.M.------
E-------------------------
B-------------------------
G-11-11-11-11-11-11-11-11-
D-11-11-11-11-11-11-11-11-
A--9--9--9--9--9--9--9--9-
E-------------------------
P.M.---------------------


RIFF A 3x

There is another guitar but that was too hard because
all th other guitar going

Guitar 1


E--------- -------------------------------
B-7h8-8-8- -7h8-8-8-8-8-8-8-8-8-7-7-7-5-5-
G--------- repeat 3 times-------------------------------
D--------- -------------------------------
A--------- -------------------------------
E--------- -------------------------------


(cont) B-5-5-3-1-0



E-----------------
B-----0-----0---0-
G-----------------
D---2-----2-------
A-0-----3-----2---
E-----------------


Verse 3


E---------------------------------------------0---0-----
B-----------------0-----0---0---0-----0---0-------0-----
G-------------------------------------0-----------------
D---------------2-------------------2---------------2---
A-2-2-2-2-2-2-0-----3-3---2---2---0-----3---2---2-----0-
E-------------------------------------------------------
E-----------------------------------
B---0-----0---0--------0---0---0----
G---0---------0--------0------------
D-------2--------2---2--------------
A-2---3-----2---3--0-----3---2---2~-
E-----------------------------------


RIFF E 2x
RIFF F 1x
RIFF E 2x
RIFF F 2x

[E---3-]
[B---3-]
[G-1-4-]
[D-2-5-]
[A-2-5-]E-0-3-

Chords List

Chord: Bonedriven - Bush - tab, song lyric, sheet, guitar, ukulele
Maybe you like