Hợp âm - tab: Already Young - The Whigs - cảm âm - lời bài hát

Cảm âm, tablature, hợp âm, tabs guitar, ukulele, lời bài hát: Already Young - The Whigs - ( --This is a great song off of Mission Control and it's ve...)

--
--This is a great song off of Mission Control and it's very easy to play.
Tuning: Standard

Intro Riff


e|-3-3-3--3-3-3--3-3-3--3-3-3-----------------------------------------------|
B|-3-3-3--3-3-3--3-3-3--3-3-3-----------------------------------------------|
G|-0-0-0--0-0-0--0-0-0--0-0-0------played--2--times-------------------------|
D|-0-0-0--0-0-0--0-0-0--0-0-0-----------------------------------------------|
A|-2-2-2--2-2-2--2-2-2--2-2-2-----------------------------------------------|
E|-0-0-3--0-0-3--0-0-3--0-0-3-----------------------------------------------|

Then
[D]D [-]- [F]F [-]- [A]A [-](l[A]et ring)

VERSE
[D]Peter Pan [F]break my fun
[A]stomp my feet cause I can't run
[D]chasing down the [F]birthmarks of my [A]dreams
your [D]shadow won't re[F]mind you
my [A]shadow won't follow you if you fly
D F A (let ring)
see you in twenty years is what I mean

CHOURS PART 1
(no guitar)
And I don't care what your old man thinks
I don't care what your old man thinks
I don't care what your old man thinks of me

CHORUS PART 2
[G]cause I don't care[D], I'm [F]already [A]young
cause I don't care[D], I'm [F]already [A]young
cause I don't care[D], I'm [F]already [A]young
D F A (let ring)
cause I don't care

VERSE 2
[D]ticking clocks [F]take my time
[A]stick it in places I can not find
the [D]way to resurrect the [F]prospects of my [A]dreams
your [D]shadow won't remi[F]nd you
my s[A]hadow won't follow you if you fly
D F A (let ring)
see you in twenty years is what I mean

-Now go back to chorus parts 1 and 2 then here's the break.
NOTE: It a downstroke followed by a quick downstroke then quick upstroke.
Parker mutes the strings after upstroke. You'll be able to hear it

[A] [A] [A] [A] [A] [A] [G]

e|-0---0-0---0---0-0--3-3-3-3-3-3-3-3---------------------------------------|
B|-2---2-2---2---2-2--3-3-3-3-3-3-3-3---------------------------------------|
G|-2---2-2---2---2-2--0-0-0-0-0-0-0-0-------Play this-3 times---------------|
D|-2---2-2---2---2-2--0-0-0-0-0-0-0-0---------------------------------------|
A|-0---0-0---0---0-0--2-2-2-2-2-2-2-2---------------------------------------|
E|--------------------3-3-3-3-3-3-3-3---------------------------------------|

^ ^ V ^ ^ V
THEN
[A] [A] [A] [A] [A] [A] [G]

e|-0---0-0---0---0-0--3-3-3--3-3-3--3-3-3--3-3-3--3-3-3--3-3-3--3-3-3--3-3-3-|
B|-2---2-2---2---2-2--3-3-3--3-3-3--3-3-3--3-3-3--3-3-3--3-3-3--3-3-3--3-3-3-|
G|-2---2-2---2---2-2--0-0-0--0-0-0--0-0-0--0-0-0--0-0-0--0-0-0--0-0-0--0-0-0-|
D|-2---2-2---2---2-2--0-0-0--0-0-0--0-0-0--0-0-0--0-0-0--0-0-0--0-0-0--0-0-0-|
A|-0---0-0---0---0-0--2-2-2--2-2-2--2-2-2--2-2-2--2-2-2--2-2-2--2-2-2--2-2-2-|
E|--------------------0-0-3--0-0-3--0-0-3--0-0-3--0-0-3--0-0-3--0-0-3--0-0-3-|


CHORUS 2 (Until end)
cause I don't care,[D] I'm [F]already [A]young
cause I don't care,[D] I'm [F]already [A]young
cause I don't care,[D] I'm [F]already [A]young
cause I don't care[D][F][A]

END on A

Chords used
[D] [F] [A] [G]

e|-2----1----0----3---------------------------------------------------------|
B|-3----1----2----3---------------------------------------------------------|
G|-2----2----2----0---------------------------------------------------------|
D|-0----3----2----0---------------------------------------------------------|
A|------3----0----2---------------------------------------------------------|
E|------1---------3---------------------------------------------------------|



| ^ Downstroke
| V Upstroke

Danh sách hợp âm

Hợp âm: Already Young - The Whigs - cảm âm, tab guitar, ukulele - lời bài hát
Có thể bạn thích