Chord/Tab song: Passapatanzy - Keller Williams

Chord,Tablature, lyric, sheet, guitar, ukulele song: Passapatanzy - Keller Williams - ( Artist - Keller Williams Song - Passapatanzy Intro: V...)

--
Artist - Keller Williams
Song - Passapatanzy

Intro:


e|-------------------| |-------------------|
B|-------------------| |-------------------|
G|-------------------| |----------------0--|
D|-------------0h2p0-| |---------0h2p0-----|
A|-8-7-5---0h2-------| x3 |-----0h2-----------|
E|-3-3-3-------------| |-0h3---------------|


Verse:

[G]Driving on down [C]218[G][C]
Not a blue light to be seen
[C]I'm comin' up on[F] ol' 7-0[C][F]
[G]Down 600 I do go[C][G][C]
I'm [F]cruising along with the [C]radio on and my [D]hands
upon the wheel
As I race I can almost taste my evening meal
Trailers, logs, horses, dogs for me to see
It's a [F]day in the [C]life in [D]Pas[D]sa[D]pa[D]ta[D]nzy



e|-------------------| |-------------------|
B|-------------------| |-------------------|
G|-------------------| |----------------0--|
D|-------------0h2p0-| |---------0h2p0-----|
A|-8-7-5---0h2-------| x3 |-----0h2-----------|
E|-3-3-3-------------| |-0h3---------------|

( Tab from: http://www.guitartabs.cc/tabs/k/keller_williams/passapatanzy_tab.html )
Got enough wood to last a week
The old pile's lookin' pretty neat
Well the pickup will hold a half a cord
Any more than that we need help from the Lord
There's plenty of kindling that's laying out
in the yard
If we run out of newspaper I can use an old
deck of cards
Take the soft section off of a rotten old
downed tree
Sweatin' in the free heat in Passapatanzy

Bridge:
Well now [B]she was in heat and we can't compete
[G]With her boyfriends
At [A]nights just for fun she [G]sleeps in the sun



e|-------------------|
B|-------------------|
G|----------------0--|
D|------0h2p0h2po----|
A|-0h2---------------|
E|-------------------|


She don't wanna be let in
That [B]seedy mutt, she's gettin' a gut
[G]There ain't no need to fuss
She [A]brings an adder home [G]every night
That [D]ca[D]nine [D]eats [D]better [D]than us



e|-------------------| |-------------------|
B|-------------------| |-------------------|
G|-------------------| |----------------0--|
D|-------------0h2p0-| |---------0h2p0-----|
A|-8-7-5---0h2-------| x3 |-----0h2-----------|
E|-3-3-3-------------| |-0h3---------------|


My love will make you feel so tall
Watch out for that ceiling fan it'll catch you
in the jaw
My wicker chair will rock you right asleep
Even if you dangle your feet
My washer bangs a trottle beat
So we can tell the Lord
Appliances can make music too
But they cannot write no songs
Won't you please take my hand
And dance around with me
It's a day in the life
In Passapatanzy

Chords List

Chord: Passapatanzy - Keller Williams - tab, song lyric, sheet, guitar, ukulele
Maybe you like