Chord/Tab song: Mark My Words - P.O.D.

Chord,Tablature, lyric, sheet, guitar, ukulele song: Mark My Words - P.O.D. - ( [Intro] [Verse] [Chorus] staccato staccato | x ...)

2 years ago213 Testify (2006) P.O.D.
--
[Intro]



D|--------------------|------------------|
A|--------------------|------------------|
F|--------------------|------------------|
C|--------------------|------------------| x 3
G|----------3-5-------|--------3-0-3-----|
C|--0-3-5-0-----0-----|--3-5-0-----------|
D|--------------------|------------------|
A|--------------------|------------------|
F|--------------------|------------------|
C|--------------------|------------------|
G|----------3-5-------|--------3-0-3\----|
C|--0-3-5-0-----0-----|--3-5-0-----------|
D|--------------------|------------------|
A|--------------------|------------------|
F|--------------------|------------------|
C|--0-----------------|--3---------------|
G|--0-----------------|--3---------------|
C|--0-----------------|--3---------------|


[Verse]



D|--------------------|------------------|
A|--------------------|------------------|
F|--------------------|------------------|
C|--0-----------------|-3----------------| x 4
G|--0-----------------|-3----------------|
C|--0-----------0-3-0-|-3----------------|


[Chorus]
staccato staccato


D|-------------------v------|-------------------v------| --|
D|--------------------------|--------------------------| |
F|--------------------------|--------------------------| |
C|--0---0--(0)--0----0------|--0---0--(0)--0----0------| |
G|--0---0--(0)--0----0------|--0---0--(0)--0----0------| |
C|--0---0--(0)--0----0------|--0---0--(0)--0----0------| |

| x 2


D|--------------------------|--------------------------| |
A|--------------------------|--------------------------| |
F|--------------------------|--------------------------| |
C|--3---3--(0)--3---(3)-(0)-|--3---3--(0)--3/5---3/5---| |
G|--3---3--(0)--3---(3)-(0)-|--3---3--(0)--3/5---3/5---| |
C|--3---3--(0)--3---(3)-(0)-|--3---3--(0)--3/5---3/5---| --|


[Break]


D|-----------------------------------------------------|
A|-----------------------------------------------------|
F|-----------------------------------------------------|
C|--0--------------------------------------------------|
G|--0--------------------------------------------------|
C|--0--------------------------------------------------|
D|-----------------------------------------------------|
A|-----------------------------------------------------|
F|-----------------------------------------------------|
C|--3--------------------------------------------------|
G|--3--------------------------------------------------|
C|--3--------------------------------------------------|


[Verse]



D|-----------------|------------------|
A|-----------------|------------------|
F|-----------------|------------------|
C|--0--------------|-3----------------| x 4
G|--0--------------|-3----------------|
C|--0--------0-3-0-|-3----------------|


[Chorus]
staccato staccato


D|-------------------v------|-------------------v------| --|
D|--------------------------|--------------------------| |
F|--------------------------|--------------------------| |
C|--0---0--(0)--0----0------|--0---0--(0)--0----0------| |
G|--0---0--(0)--0----0------|--0---0--(0)--0----0------| |
C|--0---0--(0)--0----0------|--0---0--(0)--0----0------| |

| x 2


D|--------------------------|--------------------------| |
A|--------------------------|--------------------------| |
F|--------------------------|--------------------------| |
C|--3---3--(0)--3---(3)-(0)-|--3---3--(0)--3/5---3/5---| |
G|--3---3--(0)--3---(3)-(0)-|--3---3--(0)--3/5---3/5---| |
C|--3---3--(0)--3---(3)-(0)-|--3---3--(0)--3/5---3/5---| --|


[Bridge]


PM----------|
D|------------|-------------|------------|---------------|
A|------------|-------------|------------|---------------|
F|------------|-------------|------------|---------------|
C|------------|-------------|--3---0--3--|--10---7---5---|
G|------------|--3---0------|--3---0--3--|--10---7---5---|
C|--3---0--3--|----------5--|--3---0--3--|--10---7---5---|
D|-------------|-------------|------------|-------------|
A|------------|-------------|------------|-------------|
F|------------|-------------|------------|-------------|
C|-3---0--(0)-|--5---5--(0)-|-3---0--(0)-|--5---5--(0)-| x 2
G|-3---0--(0)-|--3---5--(0)-|-3---0--(0)-|--3---5--(0)-|
C|-3---0--(0)-|------5--(0)-|-3---0--(0)-|------5--(0)-|
PM----------|
D|------------|-------------|------------|---------------|
A|------------|-------------|------------|---------------|
F|------------|-------------|------------|---------------|
C|-3---0--(0)-|--5---5--(0)-|-3---0--(0)-|--10---7---5---|
G|-3---0--(0)-|--3---5--(0)-|-3---0--(0)-|--10---7---5---|
C|-3---0--(0)-|------5--(0)-|-3---0--(0)-|--10---7---5---|
D|------------|-------------|------------|-------------|
A|------------|-------------|------------|-------------|
F|------------|-------------|------------|-------------|
C|-3---0--(0)-|--5---5--(0)-|-3---0--(0)-|--5---5--(0)-|
G|-3---0--(0)-|--3---5--(0)-|-3---0--(0)-|--3---5--(0)-|
C|-3---0--(0)-|------5--(0)-|-3---0--(0)-|------5--(0)-|
D|------------|-------------|--------------------------|
A|------------|-------------|--------------------------|
F|------------|-------------|--------------------------|
C|-3---0--(0)-|--5---5--(0)-|----N-O---G-U-I-T-A-R-----|
G|-3---0--(0)-|--3---5--(0)-|--------------------------|
C|-3---0--(0)-|------5--(0)-|--------------------------|
PM---------------------| staccato
D|-----------|-------------|-------------------------v-|
A|-----------|-------------|---------------------------|
F|-----------|-------------|---------------------------|
C|-3---0---3-|-10---7---5--|-0-----------------------0-|
G|-3---0---3-|-10---7---5--|-0-----------------------0-|
C|-3---0---3-|-10---7---5--|-0-----------------------0-|


[Chorus]
staccato staccato


D|-------------------v------|-------------------v------| --|
D|--------------------------|--------------------------| |
F|--------------------------|--------------------------| |
C|--0---0--(0)--0----0------|--0---0--(0)--0----0------| |
G|--0---0--(0)--0----0------|--0---0--(0)--0----0------| |
C|--0---0--(0)--0----0------|--0---0--(0)--0----0------| |

| x 4


D|--------------------------|--------------------------| |
A|--------------------------|--------------------------| |
F|--------------------------|--------------------------| |
C|--3---3--(0)--3---(3)-(0)-|--3---3--(0)--3/5---3/5---| |
G|--3---3--(0)--3---(3)-(0)-|--3---3--(0)--3/5---3/5---| |
C|--3---3--(0)--3---(3)-(0)-|--3---3--(0)--3/5---3/5---| --|


[Outro]



D|--------------------|------------------|
A|--------------------|------------------|
F|--------------------|------------------|
C|--------------------|------------------| x 9
G|----------3-5-------|--------3-0-3-----|
C|--0-3-5-0-----0-----|--3-5-0-----------|
PM------------------|
D|---------------------------------------|
A|---------------------------------------|
F|---------------------------------------|
C|---0--3--5--0--10--12--0---------------|
G|---0--3--5--0--10--12--0---------------|
C|---0--3--5--0--10--12--0---------------|

^
staccato last chord

Chords List

Chord: Mark My Words - P.O.D. - tab, song lyric, sheet, guitar, ukulele
Maybe you like