Chord/Tab song: Energy of Death - Apostle of Hustle

Chord,Tablature, lyric, sheet, guitar, ukulele song: Energy of Death - Apostle of Hustle - ( Title: 'Energy of Death' Artist: Apostle of Hustle (www.a...)

3 years ago304 Apostle of Hustle
--
Title: 'Energy of Death'
Artist: Apostle of Hustle (www.arts-crafts.ca/apostleofhustle/)
Album: Folkloric Feel
Tabbed by Jorge Daz (j_diaz_s@yahoo.com)

[E] [A] [D] [G] [B] [E]


F --1-3-3-2-1-1--|
A# --x-1-3-3-3-1--|
C --x-3-5-5-5-3--|
Cm --x-3-5-5-4-3--|
Dm --x-5-7-7-6-5--|
Gm --3-5-5-3-3-3--|



Intro:

(Bass Part)


E ------------------------|-------------------------|
B ------------------------|-------------------------|
G ------------------------|-------------------------|
D ------------------------|-------------------------| (x3)
A ------------------------|-------------------------|
E -1---1-1---1--1--1/5-5--|--1---1-1---1--1--1/5-5--|


(0:08)

(Guitar part) (F)


E ------------------------|--------------------------------|
B ------------------------|--------------------------------|
G ---0------------0-(0)---|----0------------0-(0)----------|
D -3---3----3--3-----3----|--3---3----3--3-----3--(3)-(3)--|
A --------3---------------|---------3----------------------|
E ------------------------|--------------------------------|

(This part is also played during verses)

Verse: x4 (0:21)

[F] [A#]

E -------------------------------------------------|
B -------------------------------------------------|
G ---------------0--0--2---2-2----0--0--2---2-2----|
D ----------------3--3---3-----3---3--3---3-----3--|
A -------------------------------------------------|
E -------------------------------------------------|

(In the rhythm of this song)

[C] [F]

E ------------------------------------------------------------|
B ---------(5)--------------(5)-------------------------------|
G ----------5----------------5-----------------------0-2-0----|
D ---------(5)--------------(5)--------------------3-------3--|
A ------------------------------------------------------------|
E ------------------------------------------------------------|

(well we drink we fuck and fight, we bring it on)

Chorus: (1:24)

[Cm] All the Gods are
[Dm] driving us in ways
[Gm] we do not understa[Dm]nd[(Dm][C#m)]
[Cm] All the Gods are
[Dm] driving us in ways
[Gm] we do not understa[Dm]nd

(1:49)

[F] [F] [F] [F]

E -----------------------------------------------|
B ---------------1h3-3-1----------------1h3-3-1--|
G -0---0h2-0h2-2----------0---0h2-0h2-2----------|
D -3-3--------------------3-3--------------------|
A -----------------------------------------------|
E -----------------------------------------------|


[F] [F] [F] [F]

E -----------------------------------------|
B ---------------1h3-3-1-------------------|
G -0---0h2-0h2-2----------0---0h2-0h2-0h2--|
D -3-3--------------------3-3--------------|
A -----------------------------------------|
E -----------------------------------------|



( Verse x2 ) (2:02)


Last Chorus: (2:33)

[Cm] All the Gods are
[Dm] driving us in ways
[Gm] we do not understa[Dm]nd[(Dm][C#m)]
[Cm] All the Gods are
[Dm] driving us in ways
[Gm] we do not understa[Dm]nd[(Dm][C#m)]
[Cm] All the Gods are
[Dm] driving us in ways
[Gm] we do not underst[C]and, we do not understand[(F)]

Outro: (3:10)

[F] [F] [F] [F]

E -----------------------------------------------|
B ---------------1h3-3-1----------------1h3-3-1--|
G -0---0h2-0h2-2----------0---0h2-0h2-2----------|
D -3-3--------------------3-3--------------------|
A -----------------------------------------------|
E -----------------------------------------------|


[F] [F] [-] [F] [F] [F]

E -------------------------3-1h3-0-1--1--1-1--|
B ---------------1h3-3-1----------------------|
G -0---0h2-0h2-2------------------------------|
D -3-3----------------------------------------|
A --------------------------------------------|
E --------------------------------------------|

Chords List

Chord: Energy of Death - Apostle of Hustle - tab, song lyric, sheet, guitar, ukulele
Maybe you like