Chord/Tab song: Can't Stand Losing You - The Police

Chord,Tablature, lyric, sheet, guitar, ukulele song: Can't Stand Losing You - The Police - ( Intro: Dm Gm Dm Gm Dm Gm Dm Gm e-1-3--- [B-3-3---]G-2...)

--
Intro: Dm Gm Dm Gm Dm Gm Dm Gm



e-1-1-5-5-3-3-3-3---
B-3-3-5-5-3-3-3-3---
G-2-2-5-5-3-3-3-3--- play this
D------------------- x4
A-------------------
E-------------------
e----------------------------
B----------------------------
G-3------3------5------552---
D-3--33--3--33--5--55--552---
A-1--33--1--33--3--55--330---
E----11-----11-----33--------
e-6-6-6-6-6-6-6-6-3-3-3-3-3-3-3-3-------------------
B-6-6-6-6-6-6-6-6-3-3-3-3-3-3-3-3-------------------
G-7-7-7-7-7-7-7-7-4-4-4-4-4-4-4-4-------------------
D-8-8-8-8-8-8-8-8-5-5-5-5-5-5-5-5-7-7-7-7-7-7-7-7---
A-8-8-8-8-8-8-8-8-5-5-5-5-5-5-5-5-7-7-7-7-7-7-7-7---
E-6-6-6-6-6-6-6-6-3-3-3-3-3-3-3-3-5-5-5-5-5-5-5-5---


e-1-3---
[B-3-3---]G-2-3--- play this


D------- x8
A-------
E-------
e-1-1-5-5-3-3-3-3---
B-3-3-5-5-3-3-3-3---
G-2-2-5-5-3-3-3-3--- play this
D------------------- x4
A-------------------
E-------------------
e----------------------------
B----------------------------
G-3------3------5------552---
D-3--33--3--33--5--55--552---
A-1--33--1--33--3--55--330---
E----11-----11-----33--------
e-6-6-6-6-6-6-6-6-3-3-3-3-3-3-3-3-------------------
B-6-6-6-6-6-6-6-6-3-3-3-3-3-3-3-3-------------------
G-7-7-7-7-7-7-7-7-4-4-4-4-4-4-4-4------------------- play this
D-8-8-8-8-8-8-8-8-5-5-5-5-5-5-5-5-7-7-7-7-7-7-7-7--- x2
A-8-8-8-8-8-8-8-8-5-5-5-5-5-5-5-5-7-7-7-7-7-7-7-7---
E-6-6-6-6-6-6-6-6-3-3-3-3-3-3-3-3-5-5-5-5-5-5-5-5---


There is a little bit played here which I haven't figured out yet!
But the song comes back to this......



e----------------------------
B----------------------------
G-3------3------5------552---
D-3--33--3--33--5--55--552---
A-1--33--1--33--3--55--330---
E----11-----11-----33--------
e-6-6-6-6-6-6-6-6-3-3-3-3-3-3-3-3-------------------
B-6-6-6-6-6-6-6-6-3-3-3-3-3-3-3-3-------------------
G-7-7-7-7-7-7-7-7-4-4-4-4-4-4-4-4------------------- play this
D-8-8-8-8-8-8-8-8-5-5-5-5-5-5-5-5-7-7-7-7-7-7-7-7--- x2
A-8-8-8-8-8-8-8-8-5-5-5-5-5-5-5-5-7-7-7-7-7-7-7-7---
E-6-6-6-6-6-6-6-6-3-3-3-3-3-3-3-3-5-5-5-5-5-5-5-5---
e-8--8--8--8--8--8--8--8------------------6-6-6-6-6-6-6-6---
B-8--8--8--8--8--8--8--8------------------6-6-6-6-6-6-6-6--- play this
G-9--9--9--9--9--9--9--9------------------7-7-7-7-7-7-7-7--- x2
D-10-10-10-10-10-10-10-10-7-7-7-7-7-7-7-7-8-8-8-8-8-8-8-8---
A-10-10-10-10-10-10-10-10-7-7-7-7-7-7-7-7-8-8-8-8-8-8-8-8---
E-8--8--8--8--8--8--8--8--5-5-5-5-5-5-5-5-6-6-6-6-6-6-6-6---
e-8--8--8--8------------
B-8--8--8--8------------
G-9--9--9--9------------
D-10-10-10-10-7-7-7-7---
A-10-10-10-10-7-7-7-7---
E-8--8--8--8--5-5-5-5---


e-1-3---
[B-3-3---]G-2-3--- play this


D------- x4
A-------
E-------


There you go a brilliant song by a brilliant band

Chords List

Chord: Can't Stand Losing You - The Police - tab, song lyric, sheet, guitar, ukulele
Maybe you like