Hợp âm - tab: Rock 'n' Roll High School - Ramones - cảm âm - lời bài hát

Cảm âm, tablature, hợp âm, tabs guitar, ukulele, lời bài hát: Rock 'n' Roll High School - Ramones - ( Tabbed by GerMnY (actually I edited the best ultimate gui...)

--
Tabbed by GerMnY (actually I edited the best ultimate guitar tab)
my english is fucking bad. i hope youll understand me.
Die anderen Tabs sind alle einen Halbton zu hoch.
(the other tabs are all a "half-tone(?)" too high)

http://youtube.com/watch?vhLahs7yCprQ

Die Anzahl der Anschlge ist nicht richtig
(the number of hits isnt right)
Drum Intro



G---------------------------------------------------------------------------|
D---------------------------------------------------------------------------|
A--8/9-9-9--8/9-9-9----2-2-2-2-2-2-2-2-2-2-2-2-2-2-2-2----------------------|
E---------------------------------------------------------------------------|

Well I don't care about history



G---------------------------------------------------------------------------|
D---------------------------------------------------------------------------|
A-2-2-2-2-2-2-2-2-2-2-2-2-2-2-2-2-2-2---------------------------------------|
E---------------------------------------0-0-0-0-0-0-0-0-0-0-0-0-0-0-0-0-0-0-|

Rock Rock rock 'n roll high school Cuz that's not where I wanna be




G---------------------------------------------------------------------------|
D---------------------------------------------------------------------------|
A-2-2-2-2-2-2-2-2-2-2-2-2-2-2-2-2-2-2--------------------7-7-7-7-7-7-7-7----|
E----------------------------------------4-4-4-4-4-4-4-4--------------------|

Rock Rock rock 'n roll high school I just wanna have some kicks




G---------------------------------------------------------------------------|
D---------------------------------------------------------------------------|
A-----------------7-7-7-7-7-7-7-7-7-----------------------------------------|
E-4-4-4-4-4-4-4-4-----------------------7---7-----4----4-----0-0-0-0-0-0----|

I just wanna get some chicks rock rock rock rock rock 'n roll



G---------------------------------------------------------------------------|
D---------------------------------------------------------------------------|
A---------------------------------------------------------------------------|
E-2-2-2-2-2-2-2-2-2-2-2-2-2-2-2-2-2-2-2-2-----------------------------------|

high school



G---------------------------------------------------------------------------|
D---------------------------------------------------------------------------|
A-2-2-2-2-2-2-2-2-2-2-2-2-2-2-2-2-2-2-2-2-2-2-2-2-2-2-2-2-------------------|
E---------------------------------------------------------------------------|

Well the girls out there knock me out you know



G---------------------------------------------------------------------------|
D---------------------------------------------------------------------------|
A-2-2-2-2-2-2-2-2-2-2-2-2-2-2-2-2-2-2---------------------------------------|
E---------------------------------------0-0-0-0-0-0-0-0-0-0-0-0-0-0-0-0-0-0-|

Rock Rock rock 'n roll high school Cruisin around in my GTO



G---------------------------------------------------------------------------|
D---------------------------------------------------------------------------|
A-2-2-2-2-2-2-2-2-2-2-2-2-2-2-2-2-2-2-----------------------------7-7-7-7-7-|
E--------------------------------------4-4-4-4-4-4-4-4-4-4-4-4-4------------|

Rock Rock rock 'n roll high school I hate the teachers and the principal



G---------------------------------------------------------------------------|
D---------------------------------------------------------------------------|
A--------------------------7-7-7-7-7-7-7------------------------------------|
E-4-4-4-4-4-4-4-4-4-4-4-4---------------------------------------------------|

Don't wanna be taught to be no fool



G---------------------------------------------------------------------------|
D---------------------------------------------------------------------------|
A---------------------------------------------------------------------------|
E-7----7-----4----4-----0--0--0--0---2-2-2-2-2-2-----(2x)-------------------|

rock rock rock rock rock 'n roll high school



G------------------------|
D------------------------|
A-1/2-2-2-2--1/2-2-2-2---|
E------------------------|
G---------------------------------------------------------------------------|
D---------------------------------------------------------------------------|
A-----------------------------------2-2-2-2-2-2-2-2-2-2-2-2-2-2-2-2-2-2-2---|
E-2-2-2-2-2-2-2-2-2-2-2-2-2-2-2-2-2-----------------------------------------|

Fun Fun rock 'n roll high school Fun Fun rock 'n roll high school



G---------------------------------------------------------------------------|
D---------------------------------------------------------------------------|
A-----------------------------------2-2-2-2-2-2-2-2-2-2-2-------------------|
E-2-2-2-2-2-2-2-2-2-2-2-2-2-2-2-2-2-----------------------0-0-0-0-0-0-0-0-0-|

Fun Fun rock 'n roll high school Fun Fun ooohh baby Fun Fun ooohh baby




G------------------------[-----------------------(2x)-----------------------]
D------------------------[--------------------------------------------------]
A-2-2-2-2-2--------------[--------------------------------------------------]
E-----------4-4-4-4-4-4--[--7---7------4----4-----0--0--0--0---2-2-2-2-2-2--]

Fun Fuuuuun Fun Fun rock rock rock rock rock 'n roll high school


Tonartenwechsel von H zu C#
(key change from H to C#)



G---------------------------------------------------------------------------|
D---------------------------------------------------------------------------|
A-4----4--------------------------------------------------------------------|
E------------6----6------2-2-2-2-2-2--4-4-4-4-4-4-4-------------------------|

rock rock rock rock rock 'n roll high school

Drum Intro




G---------------------------------------------------------------------------|
D---------------------------------------------------------------------------|
A-4-4-4-4-4-4-4-4-4-4-4-4-4-4-4-4-4-4-4-4-4-4-4-4-4-4-4-4-4-4-4-4-----------|
E---------------------------------------------------------------------------|

Well I don't care about history Rock Rock rock 'n roll high school



G---------------------------------------------------------------------------|
D---------------------------------------------------------------------------|
A-------------------------------------4-4-4-4-4-4-4-4-4-4-4-4-4-4-4-4-4-----|
E-2-2-2-2-2-2-2-2-2-2-2-2-2-2-2-2-2-----------------------------------------|

Cuz that's not where I wanna be Rock Rock rock 'n roll high school




G---------------------------------------------------------------------------|
D---------------------------------------------------------------------------|
A--------------9-9-9-9-9-9-9-9---------------9-9-9-9-9-9-9-9----------------|
E-6-6-6-6-6-6-------------------6-6-6-6-6-6---------------------------------|

I just wanna have some kicks I just wanna get some chicks




G---------------------------------------------------------------------------|
D---------------------------------------------------------------------------|
A-4----4------------------------------------------------3/4-4-4-4-3/4-4-4-4-|
E------------6----6-----2-2-2-2-2-2--4-4-4-4-4-4--(2x)----------------------|

rock rock rock rock rock 'n roll high school



G---------------------------------------------------------------------------|
D---------------------------------------------------------------------------|
A------------------------------------5-5-5-5-5-5-5-5-5-5-5-5-5-5-5-5-5------|
E-5-5-5-5-5-5-5-5-5-5-5-5-5-5-5-5-5-----------------------------------------|

Fun Fun rock 'n roll high school Fun Fun rock 'n roll high school



G---------------------------------------------------------------------------|
D---------------------------------------------------------------------------|
A---------------------------------------------------------------------------|
E-4-4-4-4-4-4-4-4-4-4-4-4-4-4-4-4-4-4---------------------------------------|

Fun Fun rock 'n roll high school



G---------------------------------------------------------------------------|
D---------------------------------------------------------------------------|
A-4-4-4-4-4-4-4-4-4-4------------------------4-4-4-4-4----------------------|
E----------------------2-2-2-2-2-2-2-2-2-2-------------6-6-6-6-6-6----------|

Fun Fun ohhh baby Fun Fun ohhh baby Fun Fuunnun Fun Fun




G---------------------------------------------------------------------------|
D---------------------------------------------------------------------------|
A-4----4------------------------------------------------------4-------------|
E-------------6----6-----2---2---2------4-4-4-4-4-4-(4x)--------------------|

rock rock rock rock rock 'n roll high school

bei irgendwelchen problemen oder Verbesserungsvorschlgen schreibt an:
simonrose92@yahoo.de
(if you have any problems or if you see something that I should edit write to:)

Danh sách hợp âm

Hợp âm: Rock 'n' Roll High School - Ramones - cảm âm, tab guitar, ukulele - lời bài hát
Có thể bạn thích