Hợp âm - tab: Invisible - Anthrax - cảm âm - lời bài hát

Cảm âm, tablature, hợp âm, tabs guitar, ukulele, lời bài hát: Invisible - Anthrax - ( (From the 1993 Album SOUND OF WHITE NOISE) Transcribed b...)

--
(From the 1993 Album SOUND OF WHITE NOISE)

Transcribed by Mike Sheehan

Words and Music by Charlie Benante, Scott Ian, Frank Bello & John Bush

[E5]0 2 x x x x

[G5]3 5 x x x x

[G#5]4 6 x x x x

[A5]5 7 x x x x

[Bb5]6 8 x x x x

[B5]7 9 x x x x

[D5]10 12 x x x x

[Bsus4]x x 9 9 x x

D5V
x 5 7 x x x
E5VII
x 7 9 x x x

Gtr I (D G C F A D) - 'Scott Ian'
Gtr II (D G C F A D) - 'Dan Spitz'
Gtr III (D G C F A D) - 'Lead'

Intro
Q124
N.C.
[4/4] Gtrs I, II
[E] [E] [E] [E] [E] [E] [E] [E] [E] [E] [E] [E] [E] [E] [E] [E]

|---------------------------------|---------------------------------|
|---------------------------------|---------------------------------|
|---------------------------------|---------------------------------|
|---------------------------------|---------------------------------|
|---------------------------------|---------------------------------|
|---------|---------|


[E] [E] [E] [E] [E] [E] [E] [E] [E] [E] [E] [E] [E] [E] [E] [E]

|---------------------------------|---------------------------------|
|---------------------------------|---------------------------------|
|---------------------------------|---------------------------------|
|---------------------------------|---------------------------------|
|---------------------------------|---------------------------------|
|---------|---------|


[E] [E] [E] [E] [E] [E] [E] [E] [E] [E] [E] [E] [E] [E] [E] [E]

|---------------------------------|---------------------------------|
|---------------------------------|---------------------------------|
|---------------------------------|---------------------------------|
|---------------------------------|---------------------------------|
|---------------------------------|---------------------------------|
|---------|---------|


[E] [E] [E] [E] [E] [E] [E] [E] [E] [E] [E] [E] [E] [E] [E] [E]

|---------------------------------|---------------------------------|
|---------------------------------|---------------------------------|
|---------------------------------|---------------------------------|
|---------------------------------|---------------------------------|
|---------------------------------|---------------------------------|
|---------|---------|


[E] [E] [E] [E] [E] [E] [E] [E] [E] [E] [E] [E] [E] [E] [E] [E]

|---------------------------------|---------------------------------|
|---------------------------------|---------------------------------|
|---------------------------------|---------------------------------|
|---------------------------------|---------------------------------|
|---------------------------------|---------------------------------|
|---------|---------|


[E] [E] [E] [E] [E] [E] [E] [E] [E] [E] [E] [E] [E] [E] [E] [E]

|---------------------------------|---------------------------------|
|---------------------------------|---------------------------------|
|---------------------------------|---------------------------------|
|---------------------------------|---------------------------------|
|---------------------------------|---------------------------------|
|---------|---------|


[E] [E] [E] [E] [E] [E] [E] [E] [E] [E] [E] [E] [E] [E] [E] [E]

|---------------------------------|---------------------------------|
|---------------------------------|---------------------------------|
|---------------------------------|---------------------------------|
|---------------------------------|---------------------------------|
|---------------------------------|---------------------------------|
|---------|---------|


[E] [E] [E] [E] [E] [E] [E] [E] [E] [E] [E] [E] [E] [E] [E] [E]

|---------------------------------|---------------------------------||
|---------------------------------|---------------------------------||
|---------------------------------|---------------------------------||
|---------------------------------|---------------------------------||
|---------------------------------|---------------------------------||
|---------|---------||


Q132
G5 N.C.


PM--------| PM--------|

E S S S S S S E S S S S S S


|-4---------------------------|
|-3---------------------------|
|-----------------------------|
|-----------------------------|
|---------------5-------------|
|---0-0-0-0-0-0-3-0-0-0-0-0-0-|


G5 N.C. G5 N.C.


PM--------| PM--------| PM--------| PM--------|

E S S S S S S E S S S S S S E S S S S S S E S S S S S S


|-4---------------------------|-4---------------------------|
|-3---------------------------|-3---------------------------|
|-----------------------------|-----------------------------|
|-----------------------------|-----------------------------|
|---------------5-------------|---------------5-------------|
|---0-0-0-0-0-0-3-0-0-0-0-0-0-|---0-0-0-0-0-0-3-0-0-0-0-0-0-|


G5 N.C.


PM--------| PM--------|

E S S S S S S E S S S S S S


|-4---------------------------|
|-3---------------------------|
|-----------------------------|
|-----------------------------|
|---------------5-------------|
|---0-0-0-0-0-0-3-0-0-0-0-0-0-|


G5 N.C. G5 N.C.


PM----| PM--------| PM----| PM--------|

Q S S S S E S S S S S S Q S S S S E S S S S S S


|-4------------------------|-4--------------------------|
|-3------------------------|-3--------------------------|
|--------------------------|----------------------------|
|--------------------------|----------------------------|
|------------5-------------|------------5---------------|
|----0-0-0-0-3-0-0-0-0-0-0-|----0-0-0-0-3-0-0-0-0-0-0---|


G5 N.C. A5B5


PM----| PM--------|

Q S S S S E S S S S S S Q Q Q E E


|-4------------------------|-4--4--4------|
|-3------------------------|-3--3--3------|
|--------------------------|--------------|
|--------------------------|--------------|
|------------5-------------|----------7-9-|
|----0-0-0-0-3-0-0-0-0-0-0-|----------5-7-|


Q145
[D5] [B5Bb5]

PM------------| PM--------|

E S S S S S S E S S S S S S


|--------------------------------------|
|--------------------------------------|
|--------------------------------------|
|--------------------------------------|
|-12-12-12-12-12-12-12-9-8-8-8-8-8-8---|
|-10-10-10-10-10-10-10-7-6-6-6-6-6-6---|


G5N.C. G5N.A5B5 D5 B5Bb5 G5N.C. G5N.A5B5


PM--------| PM------------| PM--------| PM

E S S S S S S E E E E E S S S S S S E S S S S S S E E E E E E E E


|-----------------------|------------------------------------|-----------------|
|-----------------------|------------------------------------|-----------------|
|-----------------------|------------------------------------|-----------------|
|-----------------------|------------------------------------|-----------------|
|-5-------------5---7-9-|-12-12-12-12-12-12-12-9-8-8-8-8-8-8-|-5-------5---7-9-|
|-3-0-0-0-0-0-0-3-0-5-7-|-10-10-10-10-10-10-10-7-6-6-6-6-6-6-|-3-0---0-3-0-5-7-|


D5 B5Bb5 G5 N.C. G5N.A5B5


PM------------| PM--------| PM--------|

E S S S S S S E S S S S S S E S S S S S S E E E E


|------------------------------------|-----------------------|
|------------------------------------|-----------------------|
|------------------------------------|-----------------------|
|------------------------------------|-----------------------|
|-12-12-12-12-12-12-12-9-8-8-8-8-8-8-|-5-------------5---7-9-|
|-10-10-10-10-10-10-10-7-6-6-6-6-6-6-|-3-0-0-0-0-0-0-3-0-5-7-|


[D5] E S S S S S S S S S S S S S S


|------------------------------------------------|
|------------------------------------------------|
|------------------------------------------------|
|------------------------------------------------|
|-12-12-12-12-12-12-12-12-12-12-12-12-12-12-12---|
|-10-10-10-10-10-10-10-10-10-10-10-10-10-10-10---|


[G5E5] PM[G5E5] PM
E E Q E Q. E E E E E E E E


|-----------------||-----------------|
|-----------------||-----------------|
|-----------------||-----------------|
|-----------------||-----------------|
|-12--------------||-5-2---2-5-2---2-|
|-10--------12\---||-3-0---0-3-0---0-|


G5E5 N.C. G5E5 G5E5 G5E5 N.C.
PM PM
E E Q Q Q E E E E E E E E E E Q Q Q


|--------------|-----------------|--------------||
|--------------|-----------------|--------------||
|--------------|-----------------|--------------||
|--------------|-----------------|--------------||
|-5-2----------|-5-2---2-5-2---2-|-5-2----------||
|-3-0-6--6--5--|-3-0---0-3-0---0-|-3-0-6--6--5--||


Verse
Q150
G5E5 G5E5 G5E5N.C. G5E5 G5E5 G5E5N.C.
PM PM PM PM
E E E E E E E E E E Q Q Q E E E E E E E E E E Q Q Q


||------------------|--------------|-----------------|---------------|
||o-----------------|--------------|-----------------|---------------|
||------------------|--------------|-----------------|---------------|
||------------------|--------------|-----------------|---------------|
||o-5-2---2-5-2---2-|-5-2----------|-5-2---2-5-2---2-|-5-2-----------|
||--3-0---0-3-0---0-|-3-0-6--6--5--|-3-0---0-3-0---0-|-3-0-6--6--5---|


G5E5 G5E5 G5E5N.C. G5E5 G5E5 G5E5N.C.
PM PM PM PM
E E E E E E E E E E Q Q Q E E E E E E E E E E Q Q Q


|-----------------|--------------|-----------------|--------------|
|-----------------|--------------|-----------------|--------------|
|-----------------|--------------|-----------------|--------------|
|-----------------|--------------|-----------------|--------------|
|-5-2---2-5-2---2-|-5-2----------|-5-2---2-5-2---2-|-5-2----------|
|-3-0---0-3-0---0-|-3-0-6--6--5--|-3-0---0-3-0---0-|-3-0-6--6--5--|


G5E5 G5E5 G5E5N.C. G5E5 G5E5 G5E5N.C.
PM PM PM PM
E E E E E E E E E E Q Q Q E E E E E E E E E E Q Q Q


|-----------------|--------------|-----------------|--------------|
|-----------------|--------------|-----------------|--------------|
|-----------------|--------------|-----------------|--------------|
|-----------------|--------------|-----------------|--------------|
|-5-2---2-5-2---2-|-5-2----------|-5-2---2-5-2---2-|-5-2----------|
|-3-0---0-3-0---0-|-3-0-6--6--5--|-3-0---0-3-0---0-|-3-0-6--6--5--|


[G5E5] PM[G5E5] PM [G5E5Bb5] [A5] [G5E5] PM[G5E5] PM[G5E5Bb5][A5]
E E E E E E E E E E Q Q Q E E E E E E E E E E Q Q Q


|-----------------|--------------|-----------------|--------------||
|-----------------|--------------|-----------------|--------------||
|-----------------|--------------|-----------------|--------------||
|-----------------|--------------|-----------------|--------------||
|-5-2---2-5-2---2-|-5-2-8--8--7--|-5-2---2-5-2---2-|-5-2-8--8--7--||
|-3-0---0-3-0---0-|-3-0-6--6--5--|-3-0---0-3-0---0-|-3-0-6--6--5--||


Pre Chorus
1.,D.S.
$
N.C. G5N.C. G5N.C. G5N.C.


PM--| PM--| PM--| PM--| PM--| PM--| PM

E E E E E E E E E E E E E E E E E E E E E E E E E E Q Q Q


|-4---------------|-4---------------|-4---------------|-4------------|
|-3---------------|-3---------------|-3---------------|-3------------|
|-----------------|-----------------|-----------------|--------------|
|-----------------|-----------------|-----------------|--------------|
|---------5-------|---------5-------|---------5-------|--------------|
|---0-0-0-3-0-0-0-|---0-0-0-3-0-0-0-|---0-0-0-3-0-0-0-|---0-6--6--5--|


G5N.C. G5N.C. G5N.C. A5B5


PM--| PM--| PM--| PM--| PM--| PM--| PM

E E E E E E E E E E E E E E E E E E E E E E E E E E Q Q E E


|-4---------------|-4---------------|-4---------------|-4-------------||
|-3---------------|-3---------------|-3---------------|-3-------------||
|-----------------|-----------------|-----------------|---------------||
|-----------------|-----------------|-----------------|---------------||
|---------5-------|---------5-------|---------5-------|-----------7-9-||
|---0-0-0-3-0-0-0-|---0-0-0-3-0-0-0-|---0-0-0-3-0-0-0-|---0-6--6--5-7-||


Chorus
[D5] [B5Bb5]

PM------------| PM--------|

E S S S S S S E S S S S S S


|------------------------------------|
|------------------------------------|
|------------------------------------|
|------------------------------------|
|-12-12-12-12-12-12-12-9-8-8-8-8-8-8-|
|-10-10-10-10-10-10-10-7-6-6-6-6-6-6-|


G5 N.C. G5N.A5B5 D5 B5Bb5


PM--------| PM------------| PM--------|

E S S S S S S E E E E E S S S S S S E S S S S S S


|-----------------------|------------------------------------|
|-----------------------|------------------------------------|
|-----------------------|------------------------------------|
|-----------------------|------------------------------------|
|-5-------------5---7-9-|-12-12-12-12-12-12-12-9-8-8-8-8-8-8-|
|-3-0-0-0-0-0-0-3-0-5-7-|-10-10-10-10-10-10-10-7-6-6-6-6-6-6-|


To Coda
G5N.C. G5N.A5B5 D5 B5Bb5 G5N.C. G5N.A5B5


PM PM------------| PM--------| PM--------|

E E E E E E E E E S S S S S S E S S S S S S E S S S S S S E E E E


|-----------------|------------------------------------|-----------------------|
|-----------------|------------------------------------|-----------------------|
|-----------------|------------------------------------|-----------------------|
|-----------------|------------------------------------|-----------------------|
|-5-------5---7-9-|-12-12-12-12-12-12-12-9-8-8-8-8-8-8-|-5-------------5---7-9-|
|-3-0---0-3-0-5-7-|-10-10-10-10-10-10-10-7-6-6-6-6-6-6-|-3-0-0-0-0-0-0-3-0-5-7-|


D5 N.C.
E S S S S S S S S S S S S S S E E Q E Q.


|----------------------------------------------|------------------||
|----------------------------------------------|-----------------o||
|----------------------------------------------|------------------||
|----------------------------------------------|------------------||
|-12-12-12-12-12-12-12-12-12-12-12-12-12-12-12-|-12--------------o||
|-10-10-10-10-10-10-10-10-10-10-10-10-10-10-10-|-10--------12\----||


Verse
2.
B5 Bb5 A5 N.C. B5 Bb5 A5 N.C.


PM------------------------| PM----------| PM------|

[E] [E] [E] [E] [E] [E] [E] [E] [E] [E] [E] [E] [E] [E] [E] [E] [E] [E] [E] [E] [E] [E] [E] [E] [E] [E] [E] [E] [E] [E] [E] [E]

|-----------------|-------------4---|-----------------|-------------4---|
|-----------------|-------------3---|-----------------|-------------3---|
|-----------------|-----------------|-----------------|-----------------|
|-----------------|-----------------|-----------------|-----------------|
|-9-9-9-9-9-9-9-9-|-8-8-8-8-7-7-----|-9-9-9-9-9-9-9-9-|-8-8-8-8-7-7-----|
|-7-7-7-7-7-7-7-7-|-6-6-6-6-5-5---x-|-7-7-7-7-7-7-7-7-|-6-6-6-6-5-5---x-|


D.S. al Coda
B5 Bb5 A5 N.C. B5 Bb5 A5 N.C.


PM----------| PM------| PM----------| PM------|

[E] [E] [E] [E] [E] [E] [E] [E] [E] [E] [E] [E] [E] [E] [E] [E] [E] [E] [E] [E] [E] [E] [E] [E] [E] [E] [E] [E] [E] [E] [E] [E]

|-----------------|-------------4---|-----------------|-------------4---||
|-----------------|-------------3---|-----------------|-------------3---||
|-----------------|-----------------|-----------------|-----------------||
|-----------------|-----------------|-----------------|-----------------||
|-9-9-9-9-9-9-9-9-|-8-8-8-8-7-7-----|-9-9-9-9-9-9-9-9-|-8-8-8-8-7-7-----||
|-7-7-7-7-7-7-7-7-|-6-6-6-6-5-5---x-|-7-7-7-7-7-7-7-7-|-6-6-6-6-5-5---x-||


&
D5 B5Bb5 G5N.C. G5N.A5B5


PM------------| PM--------| PM

E S S S S S S E S S S S S S E E E E E E E E


|------------------------------------|-----------------|
|------------------------------------|-----------------|
|------------------------------------|-----------------|
|------------------------------------|-----------------|
|-12-12-12-12-12-12-12-9-8-8-8-8-8-8-|-5-------5---7-9-|
|-10-10-10-10-10-10-10-7-6-6-6-6-6-6-|-3-0---0-3-0-5-7-|


[D5] [B5Bb5]

PM------------| PM--------|

E S S S S S S E S S S S S S


|-------------------------------------|
|-------------------------------------|
|-------------------------------------|
|-------------------------------------|
|-12-12-12-12-12-12-12-9-8-8-8-8-8-8--|
|-10-10-10-10-10-10-10-7-6-6-6-6-6-6--|


G5N.C. G5N.A5B5 D5 B5Bb5 G5N.C. G5N.A5B5


PM--------| PM------------| PM--------| PM

E S S S S S S E E E E E S S S S S S E S S S S S S E E E E E E E E


|-----------------------|------------------------------------|-----------------|
|-----------------------|------------------------------------|-----------------|
|-----------------------|------------------------------------|-----------------|
|-----------------------|------------------------------------|-----------------|
|-5-------------5---7-9-|-12-12-12-12-12-12-12-9-8-8-8-8-8-8-|-5-------5---7-9-|
|-3-0-0-0-0-0-0-3-0-5-7-|-10-10-10-10-10-10-10-7-6-6-6-6-6-6-|-3-0---0-3-0-5-7-|


D5 B5Bb5 G5N.C. G5N.A5B5


PM------------| PM--------| PM--------|

E S S S S S S E S S S S S S E S S S S S S E E E E


|------------------------------------|-----------------------|
|------------------------------------|-----------------------|
|------------------------------------|-----------------------|
|------------------------------------|-----------------------|
|-12-12-12-12-12-12-12-9-8-8-8-8-8-8-|-5-------------5---7-9-|
|-10-10-10-10-10-10-10-7-6-6-6-6-6-6-|-3-0-0-0-0-0-0-3-0-5-7-|


[D5] E S S S S S S S S S S S S S S


|----------------------------------------------|
|----------------------------------------------|
|----------------------------------------------|
|----------------------------------------------|
|-12-12-12-12-12-12-12-12-12-12-12-12-12-12-12-|
|-10-10-10-10-10-10-10-10-10-10-10-10-10-10-10-|


S S S S S S S S S S S S S S S S


|--------------------------------------------------|
|--------------------------------------------------|
|--------------------------------------------------|
|--------------------------------------------------|
|-12-12-12-12-12-12-12-12-12-12-12-12-12-12-12-12--|
|-10-10-10-10-10-10-10-10-10-10-10-10-10-10-10-10--|


[Bsus4]S S S S S S S S S S S S S S S S S S S S S S S S S S S S S S S S


|---------------------------------|---------------------------------|
|---------------------------------|---------------------------------|
|-9-9-9-9-9-9-9-9-9-9-9-9-9-9-9-9-|-9-9-9-9-9-9-9-9-9-9-9-9-9-9-9-9-|
|-9-9-9-9-9-9-9-9-9-9-9-9-9-9-9-9-|-9-9-9-9-9-9-9-9-9-9-9-9-9-9-9-9-|
|---------------------------------|---------------------------------|
|---------------------------------|---------------------------------|


[D5] S S S S S S S S S S S S S S S S


|-------------------------------------------------|
|-------------------------------------------------|
|-------------------------------------------------|
|-------------------------------------------------|
|-12-12-12-12-12-12-12-12-12-12-12-12-12-12-12-12-|
|-10-10-10-10-10-10-10-10-10-10-10-10-10-10-10-10-|


S S S S S S S S S S S S S S S S


|-------------------------------------------------|
|-------------------------------------------------|
|-------------------------------------------------|
|-------------------------------------------------|
|-12-12-12-12-12-12-12-12-12-12-12-12-12-12-12-12-|
|-10-10-10-10-10-10-10-10-10-10-10-10-10-10-10-10-|


Bsus4 N.C.
S S S S S S S S S S S S S S S S E E Q E Q.


|---------------------------------|----------------||
|---------------------------------|----------------||
|-9-9-9-9-9-9-9-9-9-9-9-9-9-9-9-9-|-9--------------||
|-9-9-9-9-9-9-9-9-9-9-9-9-9-9-9-9-|-9--------------||
|---------------------------------|----------------||
|---------------------------------|----------12\---||


Interlude
Bb5 A5 Bb5 N.C. Bb5 A5 Bb5 N.C.
PM PM| PM ~~~~~~~~PM PM| PM ~
E E Q Q E E Q Q E E E E +E E Q Q E E Q Q E E E E


|---------------|---------------|-----------------|---------------|
|---------------|---------------|-----------------|---------------|
|---------------|---------------|-----------------|---------------|
|---------------|---------------|-----------------|---------------|
|-----8--8--8-8-|-7--8--8-------|-------8--8--8-8-|-7--8--8-------|
|---0-6--6--6-6-|-5--6--6-0-3s1-|-(1)-0-6--6--6-6-|-5--6--6-0-3s1-|


Bb5 A5 Bb5 N.C. Bb5 A5 Bb5 N.C.
Gtrs I, II
~~~PM PM| PM ~~~~~~~~PM PM| PM ~
+E E Q Q E E Q Q E E E E +E E Q Q E E Q Q E E E E


|-----------------|---------------|-----------------|---------------||
|-----------------|---------------|-----------------|---------------||
|-----------------|---------------|-----------------|---------------||
|-----------------|---------------|-----------------|---------------||
|-------8--8--8-8-|-7--8--8-------|-------8--8--8-8-|-7--8--8-------||
|-(1)-0-6--6--6-6-|-5--6--6-0-3s1-|-(1)-0-6--6--6-6-|-5--6--6-0-3s1-||

|
| Gtr III
| /
| W W W W


|-----------------|---------------|-----------------|---------------||
|-----------------|---------------|-----------------|---------------||
|-----------------|---------------|-----------------|-3-------------||
|-----------------|---------------|-----------------|---------------||
|-----------------|---------------|-----------------|---------------||
|-----------------|---------------|-----------------|---------------||


Guitar Solo
Bb5 A5 Bb5 N.C. Bb5 A5 Bb5 N.C.
PM PM| PM PM PM| PM ~
+E E Q Q E E Q Q E E E E E E Q Q E E Q Q E E E E


|-----------------|-----------------|--------------------|---------------------|
|-----------------|-----------------|--------------------|---------------------|
|-----------------|-----------------|--------------------|---------------------|
|-----------------|-----------------|--------------------|---------------------|
|-------8--8--8-8-|--7---8--8-------|--------8---8---8-8-|--7----8----8--------|
|-(1)-0-6--6--6-6-|--5---6--6-0-3-0-|------0-6---6---6-6-|--5----6----6--0-3s1-|

|
| |
| ~~~ ~~~~~~~~ ~~~~~~
| +W +H E E E E +Q E E E E E E +E Q E +E E E E


|-----------------|-----------------|--------------------|---------------------|
|-----------------|-----------------|--------------------|---------------------|
|-(3)-------------|-(3)---------0---|--------3-3---3---3-|-(3)-2---3-(3)---0---|
|-----------------|-----------2---2-|-(2)\---------------|---------------2---2-|
|-----------------|-----------------|--------------------|---------------------|
|-----------------|-----------------|--------------------|---------------------|


Bb5 A5 Bb5 N.C.
~~~~PM PM| PM
+E E Q Q E E Q Q E E E E


|--------------------|---------------------|
|--------------------|---------------------|
|--------------------|---------------------|
|--------------------|---------------------|
|--------8---8---8-8-|--7----8----8--------|
|-(1)--0-6---6---6-6-|--5----6----6--0-3-0-|

|
| ~~~~~~~~ ~~~~~~
| +Q E E E E E E +E Q E +E E E E


|--------------------|---------------------|
|--------------------|---------------------|
|--------3-3---3---3-|-(3)-2---3-(3)---0---|
|-(2)\---------------|---------------2---2-|
|--------------------|---------------------|
|--------------------|---------------------|


Bb5 A5 Bb5 N.C.
PM PM| PM ~~
E E Q Q E E Q Q E E E E


|------------------------|----------------------------|
|------------------------|----------------------------|
|------------------------|----------------------------|
|------------------------|----------------------------|
|---------8----8----8--8-|---7-----8------8-----------|
|------0--6----6----6--6-|---5-----6------6---0--3s1-|

|
| ~~~~~~~~~ ~~~~~~~
| +Q E E E E E E +E Q E +E E E E


|------------------------|----------------------------|
|------------------------|----------------------------|
|--------15-15---15---15-|-(15)-14---15-(15)-14-------|
|-(2)\-------------------|----------------------17-14-|
|------------------------|----------------------------|
|------------------------|----------------------------|


Bb5 A5 Bb5 N.C.
~~~PM PM| PM
+E E Q Q E E Q Q E E E E


|-----------------------------|---------------------------------|
|-----------------------------|---------------------------------|
|-----------------------------|---------------------------------|
|-----------------------------|---------------------------------|
|--------8-------8-------8--8-|---7-----8----------8------------|
|-(1)-0--6-------6-------6--6-|---5-----6----------6----0--3--0-|

|
| ~~~~~~~~~ ~~~~~~~~~~~~
| Q E E E E E E +E Q E +E E E E


|-------------18-----------18-|-(18)----------------------------|
|-------21b23------21b23------|------21---21b23(21)r-17-20-17-|
|-----------------------------|---------------------------------|
|-----------------------------|---------------------------------|
|-----------------------------|---------------------------------|
|-----------------------------|---------------------------------|


E5VII N.C. D5V E5VII N.C.
PM PM|
E E Q Q E E Q Q E E E E


|----------------------|---------------------|
|----------------------|---------------------|
|----------------------|---------------------|
|----------9---9-------|-7-----9----9--------|
|----------7---7-------|-5-----7----7--------|
|-------0----------0-0-|---------------0-3-0-|

|
| ~~~
| +Q E E E E E E E E E E +H


|----------------------|---------------------|
|-(17)\---10p9---------|---------------------|
|--------------9---9---|-7-------------------|
|----------------9---9-|---[7]-5-------------|
|----------------------|---------7-(7)-------|
|----------------------|---------------------|


Bb5 A5 Bb5 N.C.
PM PM| PM
E E Q Q E E Q Q E E E E


|------------------------|----------------------------------|
|------------------------|----------------------------------|
|------------------------|----------------------------------|
|------------------------|----------------------------------|
|-------8----8------8--8-|--7--------8------8---------------|
|---0---6----6------6--6-|--5--------6------6---0------3--0-|

|
| ~~~ ~~~~~~
| Q Q +E E E E E S S E E +E S S Q


|------------------------|-13-------------------------------|
|---------------13-14-16-|----16p14-13-14-(14)--------------|
|-----/15--(15)----------|---------------------15p13-[15]---|
|------------------------|----------------------------------|
|------------------------|----------------------------------|
|------------------------|----------------------------------|


E5VII N.C. D5V E5VII N.C.
PM PM|
E E Q Q E E Q Q E E E E


|--------------------|-------------------------|
|--------------------|-------------------------|
|--------------------|-------------------------|
|--------9---9-------|--7----9------9----------|
|--------7---7-------|--5----7------7----------|
|------0---------0-0-|-----------------0-3-0---|

|
|~~~~~~ ~~~~~~~
| +Q E E E E E E +E Q E +H


|--------------------|-------------------------|
|--------------------|-----9---10-(10)---------|
|-(15)---------7---9-|-(9)---------------------|
|----------5-7-------|-------------------------|
|--------7-----------|-------------------------|
|--------------------|-------------------------|


Bb5 A5 Bb5 N.C.
PM PM| PM
E E Q Q E E Q Q E E E E


|-----------------------------|----------------------------|
|-----------------------------|----------------------------|
|-----------------------------|----------------------------|
|-----------------------------|----------------------------|
|----------8--------8----8--8-|---7-----8---------8--------|
|-------0--6--------6----6--6-|---5-----6---------6--0-3-0-|

|
| ~~~~~~~~~~~~~ ~~~~
| +Q Q +Q. E +E Q S S +H


|-----------------------------|----------------------------|
|-(10)\--------------------13-|-(13)-----------------------|
|---------13b15(13)r-------|------13---13h15-(15)-------|
|-----------------------------|----------------------------|
|-----------------------------|----------------------------|
|-----------------------------|----------------------------|


E5VII N.C. D5V E5VII N.C.
PM PM|
E E Q Q E E Q Q E E E E


|-----------------------|-----------------------|
|-----------------------|-----------------------|
|-----------------------|-----------------------|
|----------9----9-------|-7-----9----9----------|
|----------7----7-------|-5-----7----7----------|
|-------0-----------0-0-|---------------0-3-0---|

|
| ~~~
| +Q E E E E E E E S S E E +H


|--------------12-------|-----------------------|
|---------10p9----------|-----------------------|
|-(15)\-------------9---|-7---------------------|
|-----------------9---9-|---7S9-5---------------|
|-----------------------|---------7-(7)---------|
|-----------------------|-----------------------|


Bb5 A5 Bb5 N.C.
PM PM---| PM
E E Q Q E E Q Q E E E E


|------------------------------------|--------------------------|
|------------------------------------|--------------------------|
|------------------------------------|--------------------------|
|------------------------------------|--------------------------|
|--------8----------8-----8-----8----|-7---------8------8-------|
|-----0--6----------6-----6-----6----|-5---------6------6-0-3-0-|

|
| ~~~~~~~~~~~~ ~~
| E E S E. +Q S S S S S E. +E E H


|-------18---------------18----18-21-|---21b23r(21)-------------|
|-17S20----21b23(21)r-----21-------|-----------------21-------|
|------------------------------------|--------------18----------|
|------------------------------------|--------------------------|
|------------------------------------|--------------------------|
|------------------------------------|--------------------------|


E5VII N.C. D5V E5VII N.C.
PM PM-|
E E Q Q E E Q Q E E E E


|------------------------------|-----------------------------|
|------------------------------|-----------------------------|
|------------------------------|-----------------------------|
|-------9---------9------------|--7--------9--------9--------|
|-------7---------7------------|--5--------7--------7--------|
|---0------------------0--0----|-----------------------0-3-0-|

|
| ~~~~~~~~~~~~
| Q E E +Q E. S E S S E +E +H


|-----/19----------------------|-----------------------------|
|---------15b17-(15)-----------|-----------------------------|
|---------------------14-------|-----------------------------|
|---------------------------17-|-----------------------------|
|------------------------------|-14-12S10--------------------|
|------------------------------|----------12-(12)-(12)-------|


Q155
[D5]

PM----------------------------------------------

S S S S S S S S S S S S S S S S


|-------------------------------------------------|
|-------------------------------------------------|
|-------------------------------------------------|
|-------------------------------------------------|
|-12-12-12-12-12-12-12-12-12-12-12-12-12-12-12-12-|
|-10-10-10-10-10-10-10-10-10-10-10-10-10-10-10-10-|

|
| E S S S S S S E E S S S S


|-------------------------------------------------|
|-------------------------------------------------|
|-------11----------------------------------------|
|-12-------12-12-12-12-12-------------------------|
|-------------------------14----12----12-12-12-12-|
|-------------------------------------------------|
----------------------------------------------|

S S S S S S S S S S S S S S S S


|-------------------------------------------------|
|-------------------------------------------------|
|-------------------------------------------------|
|-------------------------------------------------|
|-12-12-12-12-12-12-12-12-12-12-12-12-12-12-12-12-|
|-10-10-10-10-10-10-10-10-10-10-10-10-10-10-10-10-|

|
| ~~
| E E S S S S E E E E


|-------------------------------------------------|
|-------------------------------------------------|
|-------------------------------------------------|
|-------------------------------------------------|
|-10----------------------10----------------------|
|-------12----12-12-12-12-------12----10----12----|


[Bsus4] S S S S S S S S S S S S S S S S


|--------------------------------------------|
|--------------------------------------------|
|---9--9--9-9--9-9--9-9--9-9--9-9--9--9--9-9-|
|---9--9--9-9--9-9--9-9--9-9--9-9--9--9--9-9-|
|--------------------------------------------|
|--------------------------------------------|

|
| ~~~~
| +E E E E E E S S E


|--------------------------------------------|
|--------------------------------------------|
|---------------------------------------14---|
|-----------------------12---14---14S16------|
|--------10---12S14------------------------|
|-(12)---------------------------------------|


S S S S S S S S S S S S S S S S


|-----------------------------------------------|
|-----------------------------------------------|
|--9-9--9-9--9-9--9-9--9--9-----9-9---9---9-9-9-|
|--9-9--9-9--9-9--9-9--9--9-----9-9---9---9-9-9-|
|-----------------------------------------------|
|-----------------------------------------------|

|
| ~~~~~~~~~~~~~~~~
| E E E E S E. +Q


|-----------12--------12------------------------|
|------15--------15------15b17(15)r-------|
|-16--------------------------------------------|
|-----------------------------------------------|
|-----------------------------------------------|
|-----------------------------------------------|


[D5]

PM----------------------------------------------

S S S S S S S S S S S S S S S S


|-------------------------------------------------|
|-------------------------------------------------|
|-------------------------------------------------|
|-------------------------------------------------|
|-12-12-12-12-12-12-12-12-12-12-12-12-12-12-12-12-|
|-10-10-10-10-10-10-10-10-10-10-10-10-10-10-10-10-|

|
| S S S S S S S S E E S S S S


|-------------------------------------------------|
|-------------------------------------------------|
|-------------------------------------------------|
|-12-12-12-12-12-12-12-12-------------------------|
|-------------------------14----12----12-12-12-12-|
|-------------------------------------------------|
-------------------------------------------------|

S S S S S S S S S S S S S S S S


|----------------------------------------------------------|
|----------------------------------------------------------|
|----------------------------------------------------------|
|----------------------------------------------------------|
|-12-12-12-12-12-12-12-12-12-12-12-12-12-12-12-----12------|
|-10-10-10-10-10-10-10-10-10-10-10-10-10-10-10-----10------|

|
| E E S S S S E E E S +S


|----------------------------------------------------------|
|-------------------------------------------22b24r(22)b24|
|----------------------------------------------------------|
|----------------------------------------------------------|
|-10----------------------10-------------------------------|
|-------12----12-12-12-12-------12-------------------------|


[Bsus4] S S S S S S S S S S S S S S S S


|------------------------------------------------|
|------------------------------------------------|
|---9--9-9-9-9-9---9---9--9--9--9--9--9--9--9--9-|
|---9--9-9-9-9-9---9---9--9--9--9--9--9--9--9--9-|
|------------------------------------------------|
|------------------------------------------------|

|
| +Q. +E S S S S S S S S


|------------------------22p19-------------------|
|-(22)-----------(22)r---------22p19-19----------|
|---------------------------------------21p19----|
|---------------------------------------------21-|
|------------------------------------------------|
|------------------------------------------------|


S S S S S S S S S S S S S S S S


|------------------------------------------|
|------------------------------------------|
|-9--9--9-9--9--9--9--9---9--9-9-9-9-9-9-9-|
|-9--9--9-9--9--9--9--9---9--9-9-9-9-9-9-9-|
|------------------------------------------|
|------------------------------------------|

|
| ~~~~~~~
| S E. S S S S +H


|------------------------------------------|
|------------------------------------------|
|---19-------------------------------------|
|-----------21-19-17-----------------------|
|--------------------19-(19)---------------|
|------------------------------------------|


[D5]

PM----------------------------------------------

S S S S S S S S S S S S S S S S


|-------------------------------------------------|
|-------------------------------------------------|
|-------------------------------------------------|
|-------------------------------------------------|
|-12-12-12-12-12-12-12-12-12-12-12-12-12-12-12-12-|
|-10-10-10-10-10-10-10-10-10-10-10-10-10-10-10-10-|

|
| S S S S S S S S E E Q


|-------------------------------------------------|
|-------------------------------------------------|
|-------------------------------------------------|
|-12-12-12-12-12-12-12-12-------------------------|
|-------------------------14----12----12----------|
|-------------------------------------------------|
----------------------------------------------|

S S S S S S S S S S S S S S S S


|-------------------------------------------------|
|-------------------------------------------------|
|-------------------------------------------------|
|-------------------------------------------------|
|-12-12-12-12-12-12-12-12-12-12-12-12-12-12-12-12-|
|-10-10-10-10-10-10-10-10-10-10-10-10-10-10-10-10-|

|
| E E S S S S E E E E


|-------------------------------------------------|
|-------------------------------------------12----|
|-------------------------------------------12----|
|-------------------------------------------------|
|-10----------------------10----------14----------|
|-------12----12-12-12-12-------12----------------|


[Bsus4] S S S S S S S S S S S S S S S S


|-------------------------------------------------|
|-------------------------------------------------|
|---9--9--9-9--9-9--9-9--9----9---9---9--9-9--9-9-|
|---9--9--9-9--9-9--9-9--9----9---9---9--9-9--9-9-|
|-------------------------------------------------|
|-------------------------------------------------|

|
| +E E E E E +S S E E


|-------------------------------------------------|
|-(12)------------------15------------------------|
|-(12)--------12---14---14b16---(14)p12-14---12---|
|--------14---------------------------------------|
|-------------------------------------------------|
|-------------------------------------------------|


S S S S S S S S S S S S S S S S


|-----------------------------------------|
|-----------------------------------------|
|--9-9--9-9--9--9--9-9---9--9-9-9-9-9-9-9-|
|--9-9--9-9--9--9--9-9---9--9-9-9-9-9-9-9-|
|-----------------------------------------|
|-----------------------------------------|

|
| ~~~~~~~~~
| E E S S E +H


|-----------------------------------------|
|-----------------------------------------|
|-14---12---------------------------------|
|-----------14-12-14---(14)---------------|
|-----------------------------------------|
|-----------------------------------------|


[D5]

PM----------------------------------------------

S S S S S S S S S S S S S S S S


|-------------------------------------------------|
|-------------------------------------------------|
|-------------------------------------------------|
|-------------------------------------------------|
|-12-12-12-12-12-12-12-12-12-12-12-12-12-12-12-12-|
|-10-10-10-10-10-10-10-10-10-10-10-10-10-10-10-10-|

|


| PM------------| PM------------|

| E S S S S S S S S S S S S S S


|-------------------------------------------------|
|-------------------------------------------------|
|-------------------------------------------------|
|-12----12-12-12-12-12-12-12h14-12-14-12-14-12-14-|
|-------------------------------------------------|
|-------------------------------------------------|
----------------------------------------------|

S S S S S S S S S S S S S S S S


|-------------------------------------------------|
|-------------------------------------------------|
|-------------------------------------------------|
|-------------------------------------------------|
|-12-12-12-12-12-12-12-12-12-12-12-12-12-12-12-12-|
|-10-10-10-10-10-10-10-10-10-10-10-10-10-10-10-10-|

|


| PM------------| PM------|

| S S S S S S S S S S S S S S S S


|-------------------------------------------------|
|-------------------------------------------------|
|-------------------------11h12-11h12-11-12-11-12-|
|-14h16-14-16-14-16-14-16-------------------------|
|-------------------------------------------------|
|-------------------------------------------------|
PM----------------------------------------------

S S S S S S S S S S S S S S S S


|-------------------------------------------------|
|-------------------------------------------------|
|-------------------------------------------------|
|-------------------------------------------------|
|-12-12-12-12-12-12-12-12-12-12-12-12-12-12-12-12-|
|-10-10-10-10-10-10-10-10-10-10-10-10-10-10-10-10-|

|


| PM------| PM------|

| S S S S S S S S S S S S S S S S


|-------------------------------------------------|
|-------------------------------------------------|
|-12h14-12h14-12-14-12-14-14h16-14h16-14-16-14-16-|
|-------------------------------------------------|
|-------------------------------------------------|
|-------------------------------------------------|
----------------------------------------------|

S S S S S S S S S S S S S S S S


|-------------------------------------------------||
|-------------------------------------------------||
|-------------------------------------------------||
|-------------------------------------------------||
|-12-12-12-12-12-12-12-12-12-12-12-12-12-12-12-12-||
|-10-10-10-10-10-10-10-10-10-10-10-10-10-10-10-10-||

|


| PM---------------|

| S S S S S S S S E E E E


|-------------------------------------------------||
|----15-15-15-15-15-15-15-17----15----17----15----||
|-16----------------------------------------------||
|-------------------------------------------------||
|-------------------------------------------------||
|-------------------------------------------------||


Bridge
Q150
N.C.


PM--| PM------| PM--| PM--| PM--| PM--| PM--| PM--|

[E] [E] [E] [E] [E] [E] [E] [E] [E] [E] [E] [E] [E] [E] [E] [E] [E] [E] [E] [E] [E] [E] [E] [E] [E] [E] [E] [E] [E] [E] [E] [E]

|--4--------4-----------|-4-------4-------|-4-------4-------|-4-------4-------|
|--3--------3-----------|-3-------3-------|-3-------3-------|-3-------3-------|
|-----------------------|-----------------|-----------------|-----------------|
|-----------------------|-----------------|-----------------|-----------------|
|-----------------------|-----------------|-----------------|-----------------|
|-----0-0-0---0---0---0-|---0-0-0---0-0-0-|---0-0-0---0-0-0-|---0-0-0---0-0-0-|

|
| ~~~
| H. +Q W W W


|-----------------------|-----------------|-----------------|-----------------|
|-17------------(17)\---|-----------------|-----------------|-----------------|
|-----------------------|-----------------|-----------------|-----------------|
|-----------------------|-----------------|-----------------|-----------------|
|-----------------------|-----------------|-----------------|-----------------|
|-----------------------|-----------------|-----------------|-----------------|


G5N.C. G5N.C. G5N.C. G5N.C.
Gtrs I, II


PM--| PM--| PM--| PM--| PM--| PM--| PM--| PM--|

[E] [E] [E] [E] [E] [E] [E] [E] [E] [E] [E] [E] [E] [E] [E] [E] [E] [E] [E] [E] [E] [E] [E] [E] [E] [E] [E] [E] [E] [E] [E] [E]

|-4---------------|-4---------------|-4---------------|-4---------------|
|-3---------------|-3---------------|-3---------------|-3---------------|
|-----------------|-----------------|-----------------|-----------------|
|-----------------|-----------------|-----------------|-----------------|
|---------5-------|---------5-------|---------5-------|---------5-------|
|---0-0-0-3-0-0-0-|---0-0-0-3-0-0-0-|---0-0-0-3-0-0-0-|---0-0-0-3-0-0-0-|


G5N.C. G5N.C.


PM--| PM--| PM--| PM--| PM--| PM--| PM PM PM PM

[E] [E] [E] [E] [E] [E] [E] [E] [E] [E] [E] [E] [E] [E] [E] [E] [E] [E] [E] [E] [E] [E] [E] [E] [E] [E] [E] [E] [E] [E] [E] [E]

|-4---------------|-4---------------|-4-------4-------|-4---4---4---4---||
|-3---------------|-3---------------|-3-------3-------|-3---3---3---3---||
|-----------------|-----------------|-----------------|-----------------||
|-----------------|-----------------|-----------------|-----------------||
|---------5-------|---------5-------|-----------------|-----------------||

Danh sách hợp âm

Hợp âm: Invisible - Anthrax - cảm âm, tab guitar, ukulele - lời bài hát
Có thể bạn thích