Chord/Tab song: Star Collector - The Monkees

Chord,Tablature, lyric, sheet, guitar, ukulele song: Star Collector - The Monkees - ( INTRO: Oooo, hello, [D7]Think I'll let her keep on...)

--

CHORDS: D7 -x- C7 -x- G7 -3- A7 -5-|
------- -3- -1- -3- -5-|
-5- -3- -4- -6-|
-4- -2- -3- -5-|
-5- -3- -5- -7-|
-x- -x- -3- -5-|


INTRO:

Oooo, hello,


----------------------------------------------|
----------------------------------------------|
----------------------------------------------|
-----------------7-5--------------5-3---------|
----------------------0h5-7------------0h3-5--|
--------------0h5-------------0h3-------------|


[D7]Think I'll let her keep on going
Wherever it [C7]is she's goin[D7]g to,

Give her my autograph and tell her,
"It's be[C7]en nice knowing [D7]you."

CHOURS:

Ha, she's the [G7]star collector, (Collector of stars)
[C7]She only aims to please y[D7]oung celebrities,
Yes, she's the [G7]star collector, (Collector of stars)
[C7]How can I love her when [A7]I just don't respect her?


[D7]When everything is going my way,
She want[C7]s to be close at[D7] hand,

She moves to some other doorway,
When things don't [C7]go the way she [D7]planned.

CHOURS:

Ha, she's the [G7]star collector, (Collector of stars)
[C7]She only aims to please [D7]young celebrities,
Yes, she's the [G7]star collector, (Collector of stars)
[C7]Whoa, it won't take much time [A7]before I get her off my mind.

SOLO (Play the chords used during the verse)

CHOURS:

Ha, she's the [G7]star collector, (Collector of stars)
[C7]She only aims to please [D7]young celebrities,
Yes, she's the [G7]star collector, (Collector of stars)
[C7]Whoa, it won't take much time [A7]before I get her off my mind.

SOLO (Play the chords used during the verse)

OUTRO:

Bye-bye...Bye-bye...


-----------------------------5-----7p5h7--------------5-----7p5h7--|
--------------------------3-----3------------------3-----3---------|
--------------------0-3-5----------------0----0-3-5----------------|


FADE OUT

Easy to play, have fun. From, Ryan D. Kemp

Chords List

Chord: Star Collector - The Monkees - tab, song lyric, sheet, guitar, ukulele
Maybe you like