Chord/Tab song: Nothing - Tim Vantol

Chord,Tablature, lyric, sheet, guitar, ukulele song: Nothing - Tim Vantol - ( Nothing - Tim Vantol Tabbed by: genghistron Email: a4...)

--

-----------------------------------------------------------------------------

Nothing - Tim Vantol


-----------------------------------------------------------------------------

Tabbed by: genghistron
Email: a4paterson at gmail dot com

Official site: http://www.timvantol.com/
http://www.myspace.com/timvantol

song link: http://www.youtube.com/watch?vbRq9OZEQz4Q

Tuning: Standard, Capo at 3rd fret

Intro Riff



e|---------------------3p0--------------------------------------------------|
B|3/5-5-5p3p0-0-3-5-5------0-0h3-3-5---5-5-5p3p0-0-3-3p0--------------------|
G|-------------------------------------------------------2-2p0--------------|
D|------------------------------------------------------------2-2p0---------|
A|------------------------------------------------------------------2p0-----|
E|----------------------------------------------------------------------3-0-|


Intro Chords
Listen to the song for strumming patterns.

Em C G D (sus4 - pinky hammer on e)

We can [Em]send our troops together
for recons[C]truction of a town
We can t[G]ry to catch the water
but what if the [D]water will catch them
would they[Em] tell us the whole story
about the [C]loss of the youngest ones
will they [G]keep their promise[D], salvation will come[C].

Nothing is what it s[G]eems, i[D]s what it s[Em]eems
no [C]nothing is what it s[Em]eems

[Em] [C] [G] [D(sus4)]

Chords List

Chord: Nothing - Tim Vantol - tab, song lyric, sheet, guitar, ukulele
Maybe you like