Hợp âm - tab: Hands Off the Wheel - Oleander - cảm âm - lời bài hát

Cảm âm, tablature, hợp âm, tabs guitar, ukulele, lời bài hát: Hands Off the Wheel - Oleander - ( By: !DarkGuitrist! Don't forget to rate and comment if ne...)

2 years ago220 Joyride (2003) Oleander
--
By: !DarkGuitrist!
Don't forget to rate and comment if necessary.
Enjoy!

Tuning:
|eb
|Bb
|Gb
|Db
|Ab
|Db

Legend:
fb full bend
x mute
/ slide up
\ slide down

Intro/Verse:


eb|---------------------------------------------------------------------|
Bb|---------------------------------------------------------------------|
Gb|---------------------------------------------------------------------|
Db|---------------------------------------------------------------------|
Ab|---5---5---5---5----5-----5---5---5---5----5------5---5---5---5----5-|
Db|-0---0---0---0---0-0--0-3---3---3---3---3-3---3-5---5---5---5---5-5--|
eb|-------------------------|
Bb|-------------------------|
Gb|-------------------------|
Db|-------------------------|
Ab|-----5---5---5---5-------|
Db|-5-0---0---0---0---3/5\3-|


Chorus:


eb|---------------------------------------------------------------------|
Bb|---------------------------------------------------------------------|
Gb|---------------------------------------------------------------------|
Db|-0-00-00-00-00-00-00-00-03-33-33-33-33-33-33-33-33-35-55-55-55-55-55-|
Ab|-0-00-00-00-00-00-00-00-03-33-33-33-33-33-33-33-33-35-55-55-55-55-55-|
Db|-0-00-00-00-00-00-00-00-03-33-33-33-33-33-33-33-33-35-55-55-55-55-55-|
eb|------------------------------------|
Bb|------------------------------------|
Gb|------------------------------------|
Db|-55-55-55-50-00-00-00-00-00-05-53-3-|
Ab|-55-55-55-50-00-00-00-00-00-05-53-3-|
Db|-55-55-55-50-00-00-00-00-00-05-53-3-|


Post Chorus 1:


eb|----------------------|
Bb|----------------------|
Gb|----------------------|
Db|-0-077-xx-x0-07-x5533-|
Ab|-0-055-xx-x0-05-x5533-|
Db|-0-0---xx-x0-0--x5533-|


Bridge 1:


eb|----------------------------|
Bb|-15-15-15-18-15-15-15-15-17-|
Gb|----------------------------|
Db|----------------------------|
Ab|----------------------------|
Db|----------------------------|


Bridge 2:


eb|---------------------------------------|
Bb|---------------------------------------|
Gb|---------------------------------------|
Db|-0----------3--------7fb-7-5-----------|
Ab|-0-7-8fb7-8-3-7-10-8-------5-7--8fb7-8-|
Db|-0----------3--------------5-----------|


Bridge 3:


eb|-----------|
Bb|-----------|
Gb|-----------|
Db|-0---3---5-|
Ab|-0---3---5-|
Db|-0---3---5-|


End 1:


eb|---------------------------------------------------------------------|
Bb|---------------------------------------------------------------------|
Gb|---------------------------------------------------------------------|
Db|-0-00-00-00-00-00-00-00-03-33-33-33-33-33-33-33-33-35-55-55-55-55-55-|
Ab|-0-00-00-00-00-00-00-00-03-33-33-33-33-33-33-33-33-35-55-55-55-55-55-|
Db|-0-00-00-00-00-00-00-00-03-33-33-33-33-33-33-33-33-35-55-55-55-55-55-|


End 2:
eb|---|
Bb|---|
Gb|---|
Db|-0-|
Ab|-0-|
Db|-0-|

Order:
Intro/Verse
Chorus
Verse
Chorus
Post C1orus 1
Bridge 1
Bridge 2
Bridge 3
Chorus
Post Chorus 1
Bridge 1
[End] [1]
[End] [2]

Danh sách hợp âm

Hợp âm: Hands Off the Wheel - Oleander - cảm âm, tab guitar, ukulele - lời bài hát
Có thể bạn thích