Hợp âm - tab: Bäring nord - Ultima Thule - cảm âm - lời bài hát

Cảm âm, tablature, hợp âm, tabs guitar, ukulele, lời bài hát: Bäring nord - Ultima Thule - ( Bäring Nord Ultima Thule Vikingabalk (1993) Vers 1: [Em]...)

--
Bäring Nord
Ultima Thule
Vikingabalk (1993)

Vers 1:
[Em]Jag seglat över[G] haven, snart[D] nog i tjugo[Em] år,
lärt hur dystra[G] dagar[D] kommer och[Em] går,
E5 G5 D5 Eh5
alla oceaner har varit för mig en bädd
G5 D5 Eh5
och i storm på vilda vatten, jag aldrig varit rädd

Refräng:
Men nu[G5] kallar mig den [D5]jord, där i[E5] norr den skön[C5]a Nord
Och det [G5]tär min kropp och[D5] själ, att jag ej [B5]r där
G5 D5 Eh5 C5
Och för mitt inre öga, ser jag skogens stammar höga
Vid den [G5]plats som för[D5] mig kan kallas[B5] hem

Vers 2:
Brevet från min son, kom likt vinden norrifrån
En dröm att följa pappa, att gå i faders spår
Så drar jag sakta handen genom mitt gråa hår
och från fårad kind i stillhet, jag stryker bort en tår

Refräng 2:
Ja nu [G5]kallar mig den j[D5]ord, där i [E5]norr den sköna[C5] Nord
Och det [G5]tär min kropp och[D5] själ, att jag ej [B5]r där
G5 D5 Eh5 C5
Och för mitt inre öga, ser jag skogens stammar höga
Vid den [G5]plats som för[D5] mig kan kallas[B5] hem
C5 D5 Eh5
Längtans starka vingar bär mig hem
C5 D5 Eh5
Skall aldrig mera lämna släkt och vän
I S[C5]verige finns du k[D5]var
Jag [B5]minns dig kära far

Riff 2

Vers 3:
Ung och stursk i sinnet, inga drömmar sköts i sank
Jag matats har med minnen, fast utsvulten och pank
Men när vildheten i hjärtat, med ålder viker bort
Och tankar om ett äventyr är att minnas år som gått


Refräng x2

Outro:
[E5]Mitt hem...

Riff


--------------------------------------------------------
-------------------------12---10-8---10-8-7--7h8p7------
-9---11-12---12---11-9-----------------------------8-9--
--------------------------------------------------------
--------------------------------------------------------
--------------------------------------------------------


Riff 2


----------------------------------------------------------
-------------------------------12---10-8---10-8-7---------
-9---11-12---12---11h12p11-9---------------------------9--
----------------------------------------------------------
----------------------------------------------------------
----------------------------------------------------------


När D spelas skall det spelas:
-2--2-3p2-


-3----3---
-2----2---
-0----0---
----------
----------


/metal_up_your_ass@2die4.com

Danh sách hợp âm

Hợp âm: Bäring nord - Ultima Thule - cảm âm, tab guitar, ukulele - lời bài hát
Có thể bạn thích