Hợp âm - tab: Sonho médio - Dead Fish - cảm âm - lời bài hát

Cảm âm, tablature, hợp âm, tabs guitar, ukulele, lời bài hát: Sonho médio - Dead Fish - ( I didn't tab it. This is from my personal file, but any c...)

5 months ago385 Dead Fish
--
I didn't tab it. This is from my personal file, but any corrections are welcome!

Sonho médio

Essa Musica é composta de 3 partes, que são:

1 parte



E | -----------------------------------------------------------|
B | -----------------------------------------------------------|
G | ----------- 6-6-6------------4-4-4-------------------------|
D | ----------- 6-6-6---7-7-7----4-4-4---- 2-2-2---------------|
A | ------------4-4-4---7-7-7----2-2-2-----2-2-2---------------|
E | --------------------5-5-5--------------0-0-0---------------|


Essa 1º parte é tocada 2x

2 Parte



E | -----------------------------------------------------------|
B | -----------------------------------------------------------|
G | ---------9-9 9---------------------------------------------|
D | ---------9 9-9----5-5-5------7-7-7-------------------------|
A | ---------7-7-7----5-5-5------7-7-7-------------------------|
E | ------------------7-7-7------5-5-5-------------------------|


[E]E TER O QUE FALAR
[B]ALGU?M PARA MAN-DAR
[A]PODER ACUMU-LAR

? só repetir a 1 ° até "PARA SEMPRE SEREMOS LIBERAIS........" que depois fica

3º parte



E | -----------------------------------------------------------|
B | -----------------------------------------------------------|
G | ----------- 6-6-6-----4-4-4--------------------------------|
D | ----------- 6-6-6-----4-4-4---- 2-2-2-----7-7-7------------|
A | ------------4-4-4-----2-2-2-----2-2-2-----7-7-7------------|
E | --------------------------------0-0-0-----5-5-5------------|


Repetir 4 x essa parte

Danh sách hợp âm

Hợp âm: Sonho médio - Dead Fish - cảm âm, tab guitar, ukulele - lời bài hát
Có thể bạn thích