Hợp âm - tab: Room 309 - Creeper - cảm âm - lời bài hát

Cảm âm, tablature, hợp âm, tabs guitar, ukulele, lời bài hát: Room 309 - Creeper - ( [Intro] D#|-------------------------|-----------------...)

--
[Intro]



D#|-------------------------|--------------------------------------------------|
A#|-------------------------|--------------------------------------------------|
F#|-5---4---4---------------|--------------------------------------------------|
C#|-5---4---4---5---4---4---|-2------------------------------------------------|
G#|-3---2---2---5---4---4---|-2------------------------------------------------|
D#|-------------3---2---2---|-0------------------------------------------------|

rest while bass plays Intro


[Verse]



D#|-----------------------|-----------------------|-----------------------|----------------------|
A#|-----------------------|-----------------------|-----------------------|----------------------|
F#|------------9--9----9--|-7--7----7--4--4----4--|-5--5----5--5--5----5--|-5/7----7--7--7----7--|
C#|-2--2----2--9--9----9--|-7--7----7--4--4----4--|-5--5----5--5--5----5--|-5/7----7--7--7----7--|
G#|-2--2----2--7--7----7--|-5--5----5--2--2----2--|-3--3----3--3--3----3--|-3/5----5--5--5----5--|
D#|-0--0----0-------------|-----------------------|-----------------------|----------------------|
D#|-----------------------|-----------------------|-----------------------|-----------------------|
A#|-----------------------|-----------------------|-----------------------|-----------------------|
F#|------------9--9----9--|-7--7----7--4--4----4--|-5--5----5--5--5----5--|-----------------------|
C#|-2--2----2--9--9----9--|-7--7----7--4--4----4--|-5--5----5--5--5----5--|-5---------0---0---0---|
G#|-2--2----2--7--7----7--|-5--5----5--2--2----2--|-3--3----3--3--3----3--|-5----5-5--0---0---0---|
D#|-0--0----0-------------|-----------------------|-----------------------|-3----3-3--2---2---2---|

PM
play Verse part 2x


second guitar plays this over C5 & D5 chords:



D#|---------------------|---------------------|
A#|-----------0---------|-----------0---------|
F#|------0---------0----|------0---------0----|
C#|---------------------|-0-------------------| on second line of verse only the first bar of this is played
G#|-3-------------------|---------------------|
D#|---------------------|---------------------|



[PreChorus]



D#|---------------------|------------------------|
A#|---------------------|------------------------|
F#|---------------------|------------------------|
C#|-2-------------------|---------------5-4---4--|
G#|-2-------------------|---------------5-4---4--|
D#|-0-------------------|---------------3-2---2--|



[Chorus]



D#|-----------------------|-----------------------|-----------------------|-----------------------|
A#|-----------------------|-----------------------|-----------------------|-----------------------|
F#|-5--5----5--5--5----5--|-5--5----5--5--5----5--|-7--7----7--7--7----7--|-7--7----7--7--7----7--|
C#|-5--5----5--5--5----5--|-5--5----5--5--5----5--|-7--7----7--7--7----7--|-7--7----7--7--7----7--|
G#|-3--3----3--3--3----3--|-3--3----3--3--3----3--|-5--5----5--5--5----5--|-5--5----5--5--5----5--|
D#|-----------------------|-----------------------|-----------------------|-----------------------|
D#|-----------------------|-----------------------|-----------------------|-----------------------|
A#|-----------------------|-----------------------|-----------------------|-----------------------|
F#|-9--9----9--9--9----9--|-9--9----9--7--7-------|-5--5----5--5--5----5--|-5--5----5-------------|
C#|-9--9----9--9--9----9--|-9--9----9--7--7-------|-5--5----5--5--5----5--|-5--5----5--5--5----5--|
G#|-7--7----7--7--7----7--|-7--7----7--5--5-------|-3--3----3--3--3----3--|-3--3----3--2--2----2--|
D#|-----------------------|-----------------------|-----------------------|-----------------------|
D#|-----------------------|-----------------------|-----------------------|-----------------------|
A#|-----------------------|-----------------------|-----------------------|-----------------------|
F#|-5--5----5--5--5----5--|-5--5----5--5--5----5--|-7--7----7--7--7----7--|-7--7----7--7--7----7--|
C#|-5--5----5--5--5----5--|-5--5----5--5--5----5--|-7--7----7--7--7----7--|-7--7----7--7--7----7--|
G#|-3--3----3--3--3----3--|-3--3----3--3--3----3--|-5--5----5--5--5----5--|-5--5----5--5--5----5--|
D#|-----------------------|-----------------------|-----------------------|-----------------------|
D#|-----------------------|-----------------------|-----------------------|------------------------|
A#|-----------------------|-----------------------|-----------------------|------------------------|
F#|-9--9----9--9--9----9--|-9--9----9--7--7-------|-5--5----5--5--5----5--|-5---4---4--------------|
C#|-9--9----9--9--9----9--|-9--9----9--7--7-------|-5--5----5--5--5----5--|-5---4---4---5---4---4--|
G#|-7--7----7--7--7----7--|-7--7----7--5--5-------|-3--3----3--3--3----3--|-3---2---2---5---4---4--|
D#|-----------------------|-----------------------|-----------------------|-------------3---2---2--|



[Verse 2]



D#|-----------------------|-----------------------|-----------------------|----------------------|
A#|-----------------------|-----------------------|-----------------------|----------------------|
F#|------------9--9----9--|-7--7----7--4--4----4--|-5--5----5--5--5----5--|-5/7----7--7--7----7--|
C#|-2--2----2--9--9----9--|-7--7----7--4--4----4--|-5--5----5--5--5----5--|-5/7----7--7--7----7--|
G#|-2--2----2--7--7----7--|-5--5----5--2--2----2--|-3--3----3--3--3----3--|-3/5----5--5--5----5--|
D#|-0--0----0-------------|-----------------------|-----------------------|----------------------|
D#|-----------------------|-----------------------|-----------------------|-----------------------|
A#|-----------------------|-----------------------|-----------------------|-----------------------|
F#|------------9--9----9--|-7--7----7--4--4----4--|-5--5----5--5--5----5--|-----------------------|
C#|-2--2----2--9--9----9--|-7--7----7--4--4----4--|-5--5----5--5--5----5--|-5---------0---0---0---|
G#|-2--2----2--7--7----7--|-5--5----5--2--2----2--|-3--3----3--3--3----3--|-5----5-5--0---0---0---|
D#|-0--0----0-------------|-----------------------|-----------------------|-3----3-3--2---2---2---|

PM
play Verse part 2x


[PreChorus 2]



D#|---------------------|------------------------|
A#|---------------------|------------------------|
F#|---------------------|------------------------|
C#|-2-------------------|---------------5-4---4--|
G#|-2-------------------|---------------5-4---4--|
D#|-0-------------------|---------------3-2---2--|



[Chorus 2]



D#|-----------------------|-----------------------|-----------------------|-----------------------|
A#|-----------------------|-----------------------|-----------------------|-----------------------|
F#|-5--5----5--5--5----5--|-5--5----5--5--5----5--|-7--7----7--7--7----7--|-7--7----7--7--7----7--|
C#|-5--5----5--5--5----5--|-5--5----5--5--5----5--|-7--7----7--7--7----7--|-7--7----7--7--7----7--|
G#|-3--3----3--3--3----3--|-3--3----3--3--3----3--|-5--5----5--5--5----5--|-5--5----5--5--5----5--|
D#|-----------------------|-----------------------|-----------------------|-----------------------|
D#|-----------------------|-----------------------|-----------------------|-----------------------|
A#|-----------------------|-----------------------|-----------------------|-----------------------|
F#|-9--9----9--9--9----9--|-9--9----9--7--7-------|-5--5----5--5--5----5--|-5--5----5-------------|
C#|-9--9----9--9--9----9--|-9--9----9--7--7-------|-5--5----5--5--5----5--|-5--5----5--5--5----5--|
G#|-7--7----7--7--7----7--|-7--7----7--5--5-------|-3--3----3--3--3----3--|-3--3----3--2--2----2--|
D#|-----------------------|-----------------------|-----------------------|-----------------------|
D#|-----------------------|-----------------------|-----------------------|-----------------------|
A#|-----------------------|-----------------------|-----------------------|-----------------------|
F#|-5--5----5--5--5----5--|-5--5----5--5--5----5--|-7--7----7--7--7----7--|-7--7----7--7--7----7--|
C#|-5--5----5--5--5----5--|-5--5----5--5--5----5--|-7--7----7--7--7----7--|-7--7----7--7--7----7--|
G#|-3--3----3--3--3----3--|-3--3----3--3--3----3--|-5--5----5--5--5----5--|-5--5----5--5--5----5--|
D#|-----------------------|-----------------------|-----------------------|-----------------------|
D#|-----------------------|-----------------------|-----------------------|-----------------------|
A#|-----------------------|-----------------------|-----------------------|-----------------------|
F#|-9--9----9--9--9----9--|-9--9----9--7--7-------|-5--5----5--5--5----5--|-5--5----5-------------|
C#|-9--9----9--9--9----9--|-9--9----9--7--7-------|-5--5----5--5--5----5--|-5--5----5--5--5----5--|
G#|-7--7----7--7--7----7--|-7--7----7--5--5-------|-3--3----3--3--3----3--|-3--3----3--2--2----2--|
D#|-----------------------|-----------------------|-----------------------|-----------------------|



[Chorus 2 End]



D#|--------------------|-------------------|-------------------|-------------------|
A#|--------------------|-------------------|-------------------|-------------------|
F#|-5------------------|-------------------|-7-----------------|-------------------|
C#|-5------------------|-------------------|-7-----------------|-------------------|
G#|-3------------------|-------------------|-5-----------------|-------------------|
D#|--------------------|-------------------|-------------------|-------------------|



[Bridge 1]
slower tempo, all PM except + notes

[+]

D#|---------------------------------|---------------------------------|
A#|---------------------------------|---------------------------------|
F#|-5---5---5---5---5---5---5---5-5-|-7---7---7---7---7---7---7---7-7-|
C#|-5---5---5---5---5---5---5---5-5-|-7---7---7---7---7---7---7---7-7-|
G#|-3---3---3---3---3---3---3---3-3-|-5---5---5---5---5---5---5---5-5-|
D#|---------------------------------|---------------------------------|


[+] [+]

D#|---------------------------------|---------------------------------|
A#|---------------------------------|---------------------------------|
F#|---------------------------------|---------------------------------|
C#|-2---2---2---2---2---2---2---2---|-5---5---5---5---5---5---5---5---|
G#|-2---2---2---2---2---2---2---2---|-5---5---5---5---5---5---5---5---|
D#|-0---0---0---0---0---0---0---0---|-3---3---3---3---3---3---3---3---|


[+]

D#|---------------------------------|---------------------------------|
A#|---------------------------------|---------------------------------|
F#|-5---5---5---5---5---5---5---5---|-7---7---7---7---7---7---7---7---|
C#|-5---5---5---5---5---5---5---5---|-7---7---7---7---7---7---7---7---|
G#|-3---3---3---3---3---3---3---3---|-5---5---5---5---5---5---5---5---|
D#|---------------------------------|---------------------------------|


[+] [+]

D#|---------------------------------|---------------------------------|
A#|---------------------------------|---------------------------------|
F#|---------------------------------|---------------------------------|
C#|-2---2---2---2---2---2---2---2---|-5---5---5---5---5---5---5---5---|
G#|-2---2---2---2---2---2---2---2---|-5---5---5---5---5---5---5---5---|
D#|-0---0---0---0---0---0---0---0---|-3---3---3---3---3---3---3---3---|



[Bridge 2]

+ PM again no mutes, get louder


D#|---------------------------------|---------------------------------|
A#|---------------------------------|---------------------------------|
F#|-5---5---5---5---5---5---5---5---|-7---7---7---7---7---7---7---7---|
C#|-5---5---5---5---5---5---5---5---|-7---7---7---7---7---7---7---7---|
G#|-3---3---3---3---3---3---3---3---|-5---5---5---5---5---5---5---5---|
D#|---------------------------------|---------------------------------|
D#|---------------------------------|---------------------------------|
A#|---------------------------------|---------------------------------|
F#|---------------------------------|---------------------------------|
C#|-2---2---2---2---2---4---4---5---|-5---5---5---5---5---5---5---5---|
G#|-2---2---2---2---2---4---4---5---|-5---5---5---5---5---5---5---5---|
D#|-0---0---0---0---0---2---2---3---|-3---3---3---3---3---3---3---3---|


repeat with no PM's

[Bridge 3]

play 2x


D#|---------------------------------|---------------------------------|
A#|---------------------------------|---------------------------------|
F#|-5---5---5---5---5---5---5---5---|-7---7---7---7---7---7---7---7---|
C#|-5---5---5---5---5---5---5---5---|-7---7---7---7---7---7---7---7---|
G#|-3---3---3---3---3---3---3---3---|-5---5---5---5---5---5---5---5---|
D#|---------------------------------|---------------------------------|
D#|---------------------------------|---------------------------------|
A#|---------------------------------|---------------------------------|
F#|---------------------------------|---------------------------------|
C#|-2---2---2---2---2---2---2---2---|-2---2---2---2---2---2---2---2---|
G#|-2---2---2---2---2---2---2---2---|-2---2---2---2---2---2---2---2---|
D#|-0---0---0---0---0---0---0---0---|-0---0---0---0---0---0---0---0---|



[Acoustic Outro]

Electric plays something similar, then acoustic plays this ending:



D#|-3---3---3---3---3---3---3\2---|-2---2---2---2---2---2---2p0---|
A#|-0---0---0---0---0---0---0-----|-0---0---0---0---0---0---0-----|
F#|-0---0---0---0---0---0---0-----|-0---0---0---0---0---0---0-----|
C#|-2---2---2---2---2---2---2\1---|-1---1---1---1---1---1---1p0---|
G#|-------------------------------|-------------------------------|
D#|-------------------------------|-------------------------------|
D#|-0---0---0---0---0---0---0-----|-------------------------------|
A#|-5---5---5---5---5---5---5\3---|-3---3---3---3---3---3---3\1---|
F#|-0---0---0---0---0---0---0-----|-0---0---0---0---0---0---0-----|
C#|-0---0---0---0---0---0---0-----|(0)-(0)-(0)-(0)-(0)-(0)-(0)----|
G#|-5---5---5---5---5---5---5\4---|-4---4---4---4---4---4---4\3---|
D#|-------------------------------|-------------------------------|
D#|-------------------------------|-------------------------------|-0------------|
A#|-1---1---1---1---1---1---1/3---|-3---3---3---3---3---3---3p0---|-0------------|
F#|-0---0---0---0---0---0---0-----|-0---0---0---0---0---0---0-----|-0------------|
C#|-x---x---x---x---x---x---x-----|-x---x---x---x---x---x---x-----|-2------------|
G#|-3---3---3---3---3---3---3/5---|-5---5---5---5---5---5---5-----|-2------------|
D#|-------------------------------|-------------------------------|-0------------|

Danh sách hợp âm

Hợp âm: Room 309 - Creeper - cảm âm, tab guitar, ukulele - lời bài hát
Có thể bạn thích