Hợp âm - tab: Hiding With Boys - Creeper - cảm âm - lời bài hát

Cảm âm, tablature, hợp âm, tabs guitar, ukulele, lời bài hát: Hiding With Boys - Creeper - ( [Intro] [Eb] [Eb] [C#5] [Dm] [Dm] [Bb] D#|------------...)

--
[Intro]

[Eb] [Eb] [C#5] [Dm] [Dm] [Bb]

D#|---------------|---------------|---------------|---------------|
A#|9-9-9-9-9-9-9-9|9-9-9-9--------|5-5-5-5-5-5-5-5|5-5-5-5--------|
F#|9-9-9-9-9-9-9-9|9-9-9-9-7-7-7-7|6-6-6-6-6-6-6-6|6-6-6-6-8-8-8-8|
C#|9-9-9-9-9-9-9-9|9-9-9-9-7-7-7-7|6-6-6-6-6-6-6-6|6-6-6-6-9-9-9-9|
G#|7-7-7-7-7-7-7-7|7-7-7-7-5-5-5-5|4-4-4-4-4-4-4-4|4-4-4-4-9-9-9-9|
D#|---------------|---------------|---------------|--------7-7-7-7|


[Eb] [F5] [G5] [F5] [D5]

D#|---------------|-----------------------|-----------------------|---------------|
A#|9-9-9-9-9-9-9-9|-----------------------|-----------------------|---------------|
F#|9-9-9-9-9-9-9-9|11-11-11-11-13-13-13-13|11-11-11-11-11-11-11-11|8--------------|
C#|9-9-9-9-9-9-9-9|11-11-11-11-13-13-13-13|11-11-11-11-11-11-11-11|8--------------|
G#|7-7-7-7-7-7-7-7|9--9--9--9--11-11-11-11|9--9--9--9--9--9--9--9-|6--------------|
D#|---------------|-----------------------|-----------------------|---------------|


[Verse 1]

[Eb] [Eb] [Dm] [Bb]

D#|---------------|-----------------|---------------|---------------|
A#|9-9-9-9-9-9-9-9|9-9-9-9-------9-9|5-5-5-5-5-5-5-5|---------------|
F#|9-9-9-9-9-9-9-9|9-9-9-9-9--9--9-9|6-6-6-6-6-6-6-6|8-8-8-8-8-8-8-8|
C#|9-9-9-9-9-9-9-9|9-9-9-9-11-11-9-9|6-6-6-6-6-6-6-6|9-9-9-9-9-9-9-9|
G#|7-7-7-7-7-7-7-7|7-7-7-7-7--7--7-7|4-4-4-4-4-4-4-4|9-9-9-9-9-9-9-9|
D#|---------------|-----------------|---------------|7-7-7-7-7-7-7-7|


[Eb] [Eb] [Dm] [Bb]

D#|---------------|-----------------|---------------|---------------|
A#|9-9-9-9-9-9-9-9|9-9-9-9-------9-9|5-5-5-5-5-5-5-5|---------------|
F#|9-9-9-9-9-9-9-9|9-9-9-9-9--9--9-9|6-6-6-6-6-6-6-6|8-8-8-8-8-8-8-8|
C#|9-9-9-9-9-9-9-9|9-9-9-9-11-11-9-9|6-6-6-6-6-6-6-6|9-9-9-9-9-9-9-9|
G#|7-7-7-7-7-7-7-7|7-7-7-7-7--7--7-7|4-4-4-4-4-4-4-4|9-9-9-9-9-9-9-9|
D#|---------------|-----------------|---------------|7-7-7-7-7-7-7-7|


[A] [A] [A]

D#|---------------|---------------|---------------|
A#|---------------|---------------|---------------|
F#|4-4-4-4-4-4-4-4|4-4-4-4-4-4-4-4|4--------------|
C#|7-7-7-7-7-7-7-7|7-7-7-7-7-7-7-7|7--------------|
G#|7-7-7-7-7-7-7-7|7-7-7-7-7-7-7-7|7--------------|
D#|5-5-5-5-5-5-5-5|5-5-5-5-5-5-5-5|5--------------|


[Chorus 1]

[Eb] [Eb] [Dm] [Dm]

D#|---------------|---------------|---------------|---------------|
A#|9-9-9-9-9-9-9-9|9-9-9-9-9-9-9-9|5-5-5-5-5-5-5-5|5-5-5-5-5-5-5-5|
F#|9-9-9-9-9-9-9-9|9-9-9-9-9-9-9-9|6-6-6-6-6-6-6-6|6-6-6-6-6-6-6-6|
C#|9-9-9-9-9-9-9-9|9-9-9-9-9-9-9-9|6-6-6-6-6-6-6-6|6-6-6-6-6-6-6-6|
G#|7-7-7-7-7-7-7-7|7-7-7-7-7-7-7-7|4-4-4-4-4-4-4-4|4-4-4-4-4-4-4-4|
D#|---------------|---------------|---------------|---------------|


[A] [A] [Eb] [Bb]

D#|---------------|---------------|---------------|---------------|
A#|---------------|---------------|---------------|---------------|
F#|4-4-4-4-4-4-4-4|4-4-4-4-4-4-4-4|---------------|--8-8-8-8-8-8-8|
C#|7-7-7-7-7-7-7-7|7-7-7-7-7-7-7-7|----6-6-------6|--9-9-9-9-9-9-9|
G#|7-7-7-7-7-7-7-7|7-7-7-7-7-7-7-7|7-7---------7--|--9-9-9-9-9-9-9|
D#|5-5-5-5-5-5-5-5|5-5-5-5-5-5-5-5|0-0---------0--|--7-7-7-7-7-7-7|


[Verse 2]

[Eb] [Eb] [Dm] [Bb]

D#|---------------|-----------------|---------------|---------------|
A#|9-9-9-9-9-9-9-9|9-9-9-9-------9-9|5-5-5-5-5-5-5-5|---------------|
F#|9-9-9-9-9-9-9-9|9-9-9-9-9--9--9-9|6-6-6-6-6-6-6-6|8-8-8-8-8-8-8-8|
C#|9-9-9-9-9-9-9-9|9-9-9-9-11-11-9-9|6-6-6-6-6-6-6-6|9-9-9-9-9-9-9-9|
G#|7-7-7-7-7-7-7-7|7-7-7-7-7--7--7-7|4-4-4-4-4-4-4-4|9-9-9-9-9-9-9-9|
D#|---------------|-----------------|---------------|7-7-7-7-7-7-7-7|


[Eb] [Eb] [Dm] [Bb]

D#|---------------|-----------------|---------------|---------------|
A#|9-9-9-9-9-9-9-9|9-9-9-9-------9-9|5-5-5-5-5-5-5-5|---------------|
F#|9-9-9-9-9-9-9-9|9-9-9-9-9--9--9-9|6-6-6-6-6-6-6-6|8-8-8-8-8-8-8-8|
C#|9-9-9-9-9-9-9-9|9-9-9-9-11-11-9-9|6-6-6-6-6-6-6-6|9-9-9-9-9-9-9-9|
G#|7-7-7-7-7-7-7-7|7-7-7-7-7--7--7-7|4-4-4-4-4-4-4-4|9-9-9-9-9-9-9-9|
D#|---------------|-----------------|---------------|7-7-7-7-7-7-7-7|


[A] [A] [A] [A]

D#|---------------|---------------|---------------|---------------|
A#|---------------|---------------|---------------|---------------|
F#|4-4-4-4-4-4-4-4|4-4-4-4-4-4-4-4|4-4-4-4-4-4-4-4|4--------------|
C#|7-7-7-7-7-7-7-7|7-7-7-7-7-7-7-7|7-7-7-7-7-7-7-7|7--------------|
G#|7-7-7-7-7-7-7-7|7-7-7-7-7-7-7-7|7-7-7-7-7-7-7-7|7--------------|
D#|5-5-5-5-5-5-5-5|5-5-5-5-5-5-5-5|5-5-5-5-5-5-5-5|5--------------|


[Chorus 2]

[Eb] [Eb] [Dm] [Dm]

D#|---------------|---------------|---------------|---------------|
A#|9-9-9-9-9-9-9-9|9-9-9-9-9-9-9-9|5-5-5-5-5-5-5-5|5-5-5-5-5-5-5-5|
F#|9-9-9-9-9-9-9-9|9-9-9-9-9-9-9-9|6-6-6-6-6-6-6-6|6-6-6-6-6-6-6-6|
C#|9-9-9-9-9-9-9-9|9-9-9-9-9-9-9-9|6-6-6-6-6-6-6-6|6-6-6-6-6-6-6-6|
G#|7-7-7-7-7-7-7-7|7-7-7-7-7-7-7-7|4-4-4-4-4-4-4-4|4-4-4-4-4-4-4-4|
D#|---------------|---------------|---------------|---------------|


[A] [A] [Eb] [Bb]

D#|---------------|---------------|---------------|---------------|
A#|---------------|---------------|---------------|---------------|
F#|4-4-4-4-4-4-4-4|4-4-4-4-4-4-4-4|---------------|--8-8-8-8-8-8-8|
C#|7-7-7-7-7-7-7-7|7-7-7-7-7-7-7-7|----6-6-------6|--9-9-9-9-9-9-9|
G#|7-7-7-7-7-7-7-7|7-7-7-7-7-7-7-7|7-7---------7--|--9-9-9-9-9-9-9|
D#|5-5-5-5-5-5-5-5|5-5-5-5-5-5-5-5|0-0---------0--|--7-7-7-7-7-7-7|


[Eb] [Eb] [Dm] [Dm]

D#|---------------|---------------|---------------|---------------|
A#|9-9-9-9-9-9-9-9|9-9-9-9-9-9-9-9|5-5-5-5-5-5-5-5|5-5-5-5-5-5-5-5|
F#|9-9-9-9-9-9-9-9|9-9-9-9-9-9-9-9|6-6-6-6-6-6-6-6|6-6-6-6-6-6-6-6|
C#|9-9-9-9-9-9-9-9|9-9-9-9-9-9-9-9|6-6-6-6-6-6-6-6|6-6-6-6-6-6-6-6|
G#|7-7-7-7-7-7-7-7|7-7-7-7-7-7-7-7|4-4-4-4-4-4-4-4|4-4-4-4-4-4-4-4|
D#|---------------|---------------|---------------|---------------|


[A] [A] [Eb] [Bb]

D#|---------------|---------------|---------------|---------------|
A#|---------------|---------------|---------------|---------------|
F#|4-4-4-4-4-4-4-4|4-4-4-4-4-4-4-4|---------------|--8-8-8-8-8-8-8|
C#|7-7-7-7-7-7-7-7|7-7-7-7-7-7-7-7|----6-6-------6|--9-9-9-9-9-9-9|
G#|7-7-7-7-7-7-7-7|7-7-7-7-7-7-7-7|7-7---------7--|--9-9-9-9-9-9-9|
D#|5-5-5-5-5-5-5-5|5-5-5-5-5-5-5-5|0-0---------0--|--7-7-7-7-7-7-7|


[Bridge]

[A] [G#5] [Eb] [A] [G#5] [Eb]

D#|---------------|---------------|---------------|---------------|
A#|---------------|9-9-9-9-9-9-9-9|---------------|9-9-9-9-9-9-9-9|
F#|4-4-4-4-4------|9-9-9-9-9-9-9-9|4-4-4-4-4------|9-9-9-9-9-9-9-9|
C#|7-7-7-7-7-6----|9-9-9-9-9-9-9-9|7-7-7-7-7-6----|9-9-9-9-9-9-9-9|
G#|7-7-7-7-7-6----|7-7-7-7-7-7-7-7|7-7-7-7-7-6----|7-7-7-7-7-7-7-7|
D#|5-5-5-5-5-4----|---------------|5-5-5-5-5-4----|---------------|


[A] [G#5] [Eb] [Bb] [Bb]

D#|---------------|---------------|---------------|---------------|
A#|---------------|9-9-9-9-9-9-9-9|---------------|---------------|
F#|4-4-4-4-4------|9-9-9-9-9-9-9-9|8-8-8-8-8-8-8-8|8-8-8-8-8-8-8-8|
C#|7-7-7-7-7-6----|9-9-9-9-9-9-9-9|9-9-9-9-9-9-9-9|9-9-9-9-9-9-9-9|
G#|7-7-7-7-7-6----|7-7-7-7-7-7-7-7|9-9-9-9-9-9-9-9|9-9-9-9-9-9-9-9|
D#|5-5-5-5-5-4----|---------------|7-7-7-7-7-7-7-7|7-7-7-7-7-7-7-7|


[A] [A] [A] [A]

D#|---------------|---------------|---------------|---------------|
A#|---------------|---------------|---------------|---------------|
F#|4~-------------|---------------|--------5~-----|---------------|
C#|7~-------------|---------------|----7~--7~-----|---------------|
G#|7~-------------|---------------|7~-------------|---------------|
D#|5~-------------|---------------|---------------|---------------|


[Eb] [Eb] [Eb] [Eb]

D#|---------------|---------------|---------------|---------------|
A#|9~-------------|---------------|---------------|9~-------------|
F#|9~-------------|---------------|---------------|---------------|
C#|9~-------------|---------------|---------------|---------------|
G#|7~-------------|---------------|---------------|---------------|
D#|---------------|---------------|---------------|---------------|


[A] [A] [A] [A]

D#|---------------|---------------|---------------|---------------|
A#|---------------|---------------|---------------|---------------|
F#|4~-------------|---------------|--------5~-----|---------------|
C#|7~-------------|---------------|----7~--7~-----|---------------|
G#|7~-------------|---------------|7~-------------|---------------|
D#|5~-------------|---------------|---------------|---------------|


[Eb] [Eb] [Eb] [Eb]

D#|---------------|---------------|---------------|---------------|
A#|9~-------------|---------------|---------------|9~-------------|
F#|9~-------------|---------------|---------------|---------------|
C#|9~-------------|---------------|---------------|---------------|
G#|7~-------------|---------------|---------------|---------------|
D#|---------------|---------------|---------------|---------------|


[A] [A] [A] [A]

D#|---------------|---------------|---------------|---------------|
A#|---------------|---------------|---------------|---------------|
F#|4-4-4-4-4-4-4-4|4-4-4-4-4-4-4-4|4-4-4-4-4-4-4-4|4-4-4-4-4-4-4-4|
C#|7-7-7-7-7-7-7-7|7-7-7-7-7-7-7-7|7-7-7-7-7-7-7-7|7-7-7-7-7-7-7-7|
G#|7-7-7-7-7-7-7-7|7-7-7-7-7-7-7-7|7-7-7-7-7-7-7-7|7-7-7-7-7-7-7-7|
D#|5-5-5-5-5-5-5-5|5-5-5-5-5-5-5-5|5-5-5-5-5-5-5-5|5-5-5-5-5-5-5-5|


[Eb] [Eb] [Eb] [Eb]

D#|---------------|---------------|---------------|---------------|
A#|---------------|---------------|---------------|---------------|
F#|9-9-9-9-9-9-9-9|9-9-9-9-9-9-9-9|9-9-9-9-9-9-9-9|9-9-9-9-9-9-9-9|
C#|9-9-9-9-9-9-9-9|9-9-9-9-9-9-9-9|9-9-9-9-9-9-9-9|9-9-9-9-9-9-9-9|
G#|9-9-9-9-9-9-9-9|9-9-9-9-9-9-9-9|9-9-9-9-9-9-9-9|9-9-9-9-9-9-9-9|
D#|7-7-7-7-7-7-7-7|7-7-7-7-7-7-7-7|7-7-7-7-7-7-7-7|7-7-7-7-7-7-7-7|


[A] [A] [A] [A]

D#|---------------|---------------|---------------|---------------|
A#|---------------|---------------|---------------|---------------|
F#|4-4-4-4-4-4-4-4|4-4-4-4-4-4-4-4|4-4-4-4-4-4-4-4|4-4-4-4-4-4-4-4|
C#|7-7-7-7-7-7-7-7|7-7-7-7-7-7-7-7|7-7-7-7-7-7-7-7|7-7-7-7-7-7-7-7|
G#|7-7-7-7-7-7-7-7|7-7-7-7-7-7-7-7|7-7-7-7-7-7-7-7|7-7-7-7-7-7-7-7|
D#|5-5-5-5-5-5-5-5|5-5-5-5-5-5-5-5|5-5-5-5-5-5-5-5|5-5-5-5-5-5-5-5|


[Eb] [Eb] [Eb]

D#|---------------|---------------|---------------|---------------|
A#|---------------|---------------|---------------|---------------|
F#|9-9-9-9-9-9-9-9|9-9-9-9-9-9-9-9|9-9-9-9-9-9-9-9|---------------|
C#|9-9-9-9-9-9-9-9|9-9-9-9-9-9-9-9|9-9-9-9-9-9-9-9|---------------|
G#|9-9-9-9-9-9-9-9|9-9-9-9-9-9-9-9|9-9-9-9-9-9-9-9|---------------|
D#|7-7-7-7-7-7-7-7|7-7-7-7-7-7-7-7|7-7-7-7-7-7-7-7|---------------|


[Chorus 3]

[Eb] [Eb] [Dm] [Dm]

D#|---------------|---------------|---------------|---------------|
A#|9-9-9-9-9-9-9-9|9-9-9-9-9-9-9-9|5-5-5-5-5-5-5-5|5-5-5-5-5-5-5-5|
F#|9-9-9-9-9-9-9-9|9-9-9-9-9-9-9-9|6-6-6-6-6-6-6-6|6-6-6-6-6-6-6-6|
C#|9-9-9-9-9-9-9-9|9-9-9-9-9-9-9-9|6-6-6-6-6-6-6-6|6-6-6-6-6-6-6-6|
G#|7-7-7-7-7-7-7-7|7-7-7-7-7-7-7-7|4-4-4-4-4-4-4-4|4-4-4-4-4-4-4-4|
D#|---------------|---------------|---------------|---------------|


[A] [A] [Eb] [Bb]

D#|---------------|---------------|---------------|---------------|
A#|---------------|---------------|---------------|---------------|
F#|4-4-4-4-4-4-4-4|4-4-4-4-4-4-4-4|---------------|--8-8-8-8-8-8-8|
C#|7-7-7-7-7-7-7-7|7-7-7-7-7-7-7-7|----6-6-------6|--9-9-9-9-9-9-9|
G#|7-7-7-7-7-7-7-7|7-7-7-7-7-7-7-7|7-7---------7--|--9-9-9-9-9-9-9|
D#|5-5-5-5-5-5-5-5|5-5-5-5-5-5-5-5|0-0---------0--|--7-7-7-7-7-7-7|


[Eb] [Eb] [Dm] [Dm]

D#|---------------|---------------|---------------|---------------|
A#|9-9-9-9-9-9-9-9|9-9-9-9-9-9-9-9|5-5-5-5-5-5-5-5|5-5-5-5-5-5-5-5|
F#|9-9-9-9-9-9-9-9|9-9-9-9-9-9-9-9|6-6-6-6-6-6-6-6|6-6-6-6-6-6-6-6|
C#|9-9-9-9-9-9-9-9|9-9-9-9-9-9-9-9|6-6-6-6-6-6-6-6|6-6-6-6-6-6-6-6|
G#|7-7-7-7-7-7-7-7|7-7-7-7-7-7-7-7|4-4-4-4-4-4-4-4|4-4-4-4-4-4-4-4|
D#|---------------|---------------|---------------|---------------|


[A] [A] [Eb] [Eb] [Eb] [Eb]

D#|---------------|---------------|---------------|---------------|---------------|---------------|
A#|---------------|---------------|---------------|---------------|---------------|---------------|
F#|4-4-4-4-4-4-4-4|4-4-4-4-4-4-4-4|---------------|---------------|---------------|---------------|
C#|7-7-7-7-7-7-7-7|7-7-7-7-7-7-7-7|----6-6-------6|----6-6-------6|----6-6-------6|---------------|
G#|7-7-7-7-7-7-7-7|7-7-7-7-7-7-7-7|7-7---------7--|7-7---------7--|7-7---------7--|7--------------|
D#|5-5-5-5-5-5-5-5|5-5-5-5-5-5-5-5|0-0---------0--|0-0---------0--|0-0---------0--|0--------------|

Danh sách hợp âm

Hợp âm: Hiding With Boys - Creeper - cảm âm, tab guitar, ukulele - lời bài hát
Có thể bạn thích