Chord/Tab song: Heisenberg Says

Chord,Tablature, lyric, sheet, guitar, ukulele song: Heisenberg Says - ( TRANSCRIBED BY RUDY GUZMAN [email protected] x2...)

a year ago295 Clouds
--
TRANSCRIBED BY RUDY GUZMAN

[email protected]




e:----------------------------|
B:----------------------------|
G:----------------------------|
D:-9-4--4/6-6-6-6-6-6-6-6-6-6-|
A:-9-4--4/6-6-6-6-6-6-6-6-6-6-|
E:-7-2--2/4-4-4-4-4-4-4-4-4-4-|
e:-----------------------------------------------------------------|
B:-----------------------------------------------------------------|
G:-----------------------------------------------------------------|
D:-4/6-6-6-6-6-6-9---------9-9-8-8-6-6-6-6-6-6--6-6-6-6-6-9--------|
A:-4/6-6-6-6-6-6-9-9b~~~~--9-9-8-8-6-6-6-6-6-6--6-6-6-6-6-9-9b~~~~-|
E:-2/4-4-4-4-4-4-7---------7-7-6-6-4-4-4-4-4-4--4-4-4-4-4-7--------|


x2


e:-----------------------------------------|
B:-----------------------------------------|
G:-----------------------------------------|
D:-6-6-6-6-6-9---------9-9-8-8-6-6-6-6-6-6-|
A:-6-6-6-6-6-9-9b~~~~--9-9-8-8-6-6-6-6-6-6-|
E:-4-4-4-4-4-7---------7-7-6-6-4-4-4-4-4-4-|
e:---------------------------------------|
B:---------------------------------------|
G:---------------------------------------|
D:-6-6-6-6-6-9---------9-9-8-8-6--4-6-9--|
A:-6-6-6-6-6-9-9b~~~~--9-9-8-8-6--4-6-9--|
E:-4-4-4-4-4-7---------7-7-6-6-4--2-4-7--|
e:-------------------------------------|
B:-------------------------------------|
G:-6-6-6-6-6-6-6-----------------------|
D:-6-6-6-6-6-6-6--2--4--7--6-6-6-6-6-6-|
A:-4-4-4-4-4-4-4--2--4--7--6-6-6-6-6-6-|
E:----------------0--2--5--4-4-4-4-4-4-|
e:-------------------------------------------|
B:-------------------------------------------|
G:-------6-6-6-6-6-6-6-----------------------|
D:-4-6-9-6-6-6-6-6-6-6--2--4--7--6-6-6-6-6-6-|
A:-4-6-9-4-4-4-4-4-4-4--2--4--7--6-6-6-6-6-6-|
E:-2-4-7----------------0--2--5--4-4-4-4-4-4-|


solo
[-----]

e:------/------------------4---------------------------------------------------|
B:-4bf-/-4-4-4--4b-4b~~-7b---------------------4---------------------------4-7-|
G:-6bf/--6-6-6--6b-6b~~------6b-6-4-4~~~~~--6b---6p4---4~~-------------4-6-----|
D:---------------------------------------------------6------4b~~~~--6----------|
A:-----------------------------------------------------------------------------|
E:-----------------------------------------------------------------------------|


[---]

e:-----16-16-----16-16-----------------------------/----------|
B:-----16-16-----16-16-----19p16-----19p16----19bf/-19--------|
G:-18b-------18b-------18--------18--------18-----------------|
D:------------------------------------------------------------|
A:------------------------------------------------------------|
E:------------------------------------------------------------|
e:------------------|
B:------------------|
G:--8-8-8-8-8-8-----|
D:--x-x-x-x-x-x--6--|
A:--6-6-6-6-6-6--x--|
E:---------------4--|
e:-------------------------|
B:-------------------------|
G:--8-8-8-8-8-8----------9-|
D:--x-x-x-x-x-x--6---9---x-|
A:--6-6-6-6-6-6--x---x---7-|
E:---------------4---7-----|
e:--------------------------------------------------------|
B:--------------------------------------------------------|
G:--8-8-8-8-8-8-8-8-8-8-8-8-8-8-8-8-8-8-8-8-8-8-8-8-8-8-8-|
D:--x-x-x-x-x-x-x-x-x-x-x-x-x-x-x-x-x-x-x-x-x-x-x-x-x-x-x-|
A:--6-6-6-6-6-6-6-6-6-6-6-6-6-6-6-6-6-6-6-6-6-6-6-6-6-6-6-|
E:--------------------------------------------------------|
e:----------------------------------------|
B:----------------------------------------|
G:-8-8-8-9-9-9-10-10-10-11-11-11-12-12-12-|
D:-x-x-x-x-x-x-x--x--x--x--x--x--x--x--x--|
A:-6-6-6-7-7-7-8--8--8--9--9--9--10-10-10-|
E:----------------------------------------|


x2


e:-------------------------------------------|
B:-------------------------------------------|
G:-------6-6-6-6-6-6-6-----------------------|
D:-4-6-9-6-6-6-6-6-6-6--2--4--7--6-6-6-6-6-6-|
A:-4-6-9-4-4-4-4-4-4-4--2--4--7--6-6-6-6-6-6-|
E:-2-4-7----------------0--2--5--4-4-4-4-4-4-|
e:------------------------------------------------------------|
B:------------------------------------------------------------|
G:------------------------------------------------------------|
D:-9--4--6-\--------------------------------------------------|
A:-9--4--6-\--------------------------------------------------|
E:-7--2--4-\--------------------------------------------------|



http://www.myspace.com/cloudsrock/music/songs/heisenberg-says-31256919 myspace

http://www.facebook.com/pages/CLOUDS/54598830027 facebook

http://new.music.yahoo.com/clouds/tracks/heisenberg-says--187642640 album

http://www.amazon.com/Heisenberg-Says/dp/B001APJYC4 album single

hillo son mex

29/07/11

Chords List

Chord: Heisenberg Says - tab, song lyric, sheet, guitar, ukulele
Maybe you like