Chord/Tab song: Atomica - Wolfgang

Chord,Tablature, lyric, sheet, guitar, ukulele song: Atomica - Wolfgang - ( SONG: ATOMICA ALBUM: SERVE IN SILENCE TRANSCRIBED BY: ISP...)

--
SONG: ATOMICA
ALBUM: SERVE IN SILENCE
TRANSCRIBED BY: ISPLACER

INTRO: 2 GUITARS
CLEAN TONE

0:00 - 0:24

G U I T A R 1
[Em] [D]

eb|-----------(12)-10-------|-------------(12)-----|
bb|-(12)----10--------0-----|-------10-------------|
gb|-----(12)-----------(12)-|---(12)--(12)---------|
Db|-------------------------|----------------------|
Ab|-------------------------|--9-------------------|
Eb|---0---------------------|-10-------------------|

| | |
|G U I T A R 2 | |
| | |


eb|-------------0-----------|----------------------|
bb|---0-------------3p0-----|--------------(0)-----|
gb|-------0-h2-----------0--|-----0--2p0-----------|
Db|-------------------------|--4-------------------|
Ab|-------------------------|--5-------------------|
Eb|---0---------------------|----------------------|


G U I T A R 1
[Em] [D]

eb|-----------(12)-10--------|---------------------|
bb|-(12)----10--------0----0-|-------10----10-(12)-|
gb|-----(12)-----------(12)--|---(12)--(12)--------|
Db|--------------------------|---------------------|
Ab|--------------------------|--9------------------|
Eb|---0----------------------|-10------------------|

| | |
|G U I T A R 2 | |
| | |


eb|-------------0------------|---------------------|
bb|---0-------------3p0----0-|-------(7)---(7)-(5)-|
gb|-------0-h2-----------0---|-----0-(7)(5)(7)-----|
Db|--------------------------|--4----(7)(5)(7)-----|
Ab|--------------------------|--5------------------|
Eb|---0----------------------|---------------------|


G U I T A R 1
[Em] [D]

eb|-----------(12)-10-------|-------------(12)-----|
bb|-(12)----10--------0-----|-------10-------------|
gb|-----(12)-----------(12)-|---(12)--(12)---------|
Db|-------------------------|----------------------|
Ab|-------------------------|--9-------------------|
Eb|---0---------------------|-10-------------------|

| | |
|G U I T A R 2 | |
| | |


eb|-------------0-----------|------------------(7)-|
bb|---0-------------3p0-----|--------------(0)-----|
gb|-------0-h2-----------0--|-----0--2p0-----------|
Db|-------------------------|--4-------------------|
Ab|-------------------------|--5-------------------|
Eb|---0---------------------|----------------------|


G U I T A R 1
[Em] [D]

eb|---------------------|----------------------|
bb|-(12)------7-8---7-8-|-------10----10-------|
gb|-------(12)----0-----|---(12)--(12)---------|
Db|----(7)--------------|----------------------|
Ab|---------------------|--9-------------------|
Eb|---0-----------------|-10-------------------|

| | |
|G U I T A R 2 | |
| | |


eb|---------------------|----------------------|
bb|---0-----------------|--------------3-------|
gb|-----2--p0---0-----0-|-----0--2p0-----------|
Db|-----------4-----4---|--4-------------------|
Ab|---------------------|--5-------------------|
Eb|---0-----------------|----------------------|


0:25 - 0:31

G U I T A R 1
[G] [C]

eb|------------------------|-------------8-----------|
bb|-------------8-Let ring-|----------12-8------8----|
gb|------7-9-7-(7)---------|------9h12--(9)-9--(9)---|
Db|--9-10------------------|-10h12-----------10---10-|
Ab|------------------------|-------------------------|
Eb|------------------------|-------------------------|

| | |
|G U I T A R 2 | |
| | Let ring...|


eb|------------3---3---3---|-------------0-----------|
bb|--3-----3--(3)-(3)-(3)--|-1-------3---3-----------|
gb|-(4)----------4---4---4-|-0---0------(0)----------|
Db|------5-----------------|-------------------------|
Ab|------------------------|-3-----------------------|
Eb|--3---------------------|-------------------------|


0:31 - 0:49

G U I T A R 1
[G] [C]

eb|--8-p7-p5-----3----------|-------------------------7--|
bb|--0-------8\-(3)-3---3---|----------------7--8-10-(0)-|
gb|--0----------------0---0-|------------7h9(0)(0)(0)----|
Db|-------------------------|--------9h10----------------|
Ab|-------------------------|----7h10--------------------|
Eb|-------------------------|---8------------------------|

| | |
|G U I T A R 2 | |
| | |


eb|-------------------------|----------------------------|
bb|--------------8----------|----------8------8------8---|
gb|--7-------7--(7)-7---7---|---9-----(9)----(9)----(9)--|
Db|--------9----------9---9-|-(10)-10-----10-----10------|
Ab|-10----------------------|----------------------------|
Eb|-------------------------|----------------------------|


G U I T A R 1
[G] [C]

eb|--7-----------3-----7p3-7/12-p10-|-------/8----7------|
bb|----------3--(3)-3---------------|--------------(8)---|
gb|--0----------------0-------------|--------------------|
Db|---------------------------------|--------------------|
Ab|---------------------------------|--------------------|
Eb|---------------------------------|--------------------|

| | |
|G U I T A R 2 | |
| | |


eb|---------------------------------|--------------------|
bb|--------------8------------------|-0h1----1----0------|
gb|--7-------7--(7)-7-------7-------|-0---0-(0)-0-0-0----|
Db|--------9----------9-----------9-|-----------------2--|
Ab|-10------------------------------|-3------------------|
Eb|---------------------------------|--------------------|


G U I T A R 1
[G] [C]

eb|-7h8-7----3----------|--------------------|
bb|------8-3(3)-3---3---|------------------0-|
gb|---------------0---0-|--------------------|
Db|---------------------|-/9-9-9-h10-p9-7-7--|
Ab|---------------------|--------------------|
Eb|---------------------|--------------------|

| | |
|G U I T A R 2 | |
| | |


eb|----------3----------|--------------------|
bb|-3-----3-(3)-3---3---|--0-----h1--p0----0-|
gb|----0----------0---0-|--0------------2----|
Db|---------------------|--------------------|
Ab|---------------------|--3-----------------|
Eb|-3-------------------|--------------------|


VERSE: TRANSCRIBED FOR 1 GUITAR

0:50 - 1:14

[Em] [D]

eb|-----------(12)10-------|-------------(12)-----|
bb|-(12)----10-------0-----|-------10--------(12)-|
gb|-----(12)----------(12)-|---(12)--(12)---------|
Db|------------------------|----------------------|
Ab|------------------------|--9-------------------|
Eb|------------------------|-10-------------------|


Em D Let ring


eb|------------10-----(12)-|--------------10------|
bb|-----7-8-10-------------|-------10------0------|
gb|-(12)---------(12)------|---(12)--(12)---------|
Db|------------------------|----------------------|
Ab|------------------------|--9-------------------|
Eb|---0--------------------|-10-------------------|


Em ^^ D Let ring


eb|-------------------(12)-|----------------------|
bb|-(12)--------7----------|-------10----(12)-----|
gb|--------(12)---9--------|---(12)--(12)---------|
Db|-----(7)----------------|----------------------|
Ab|------------------------|--9-------------------|
Eb|---0--------------------|-10-------------------|


Em ^^ D ^^^^


eb|------------(12)-10--12-|----------------------|
bb|--(12)----10------------|--7-8-7---7-----------|
gb|------(12)--------------|--7-----9---9-p7------|
Db|------------------------|--0-------------------|
Ab|------------------------|----------------------|
Eb|---0--------------------|----------------------|


1:15 - 1:42

[G] [C]

eb|----------0---3---------|---------0--------|
bb|--0-h1-h3---3---3---3---|-1---3-----3-p1---|
gb|------------------0---0-|-0-0---0--------0-|
Db|------------------------|------------------|
Ab|------------------------|-3----------------|
Eb|--3---------------------|------------------|


[G] [C]

eb|--------------3---------|---------0--------|
bb|--3---------3(0)3---3---|-1---3-----3-p1---|
gb|--0-------0-------0---0-|-0-0---0--------0-|
Db|------------------------|------------------|
Ab|------------------------|-3----------------|
Eb|--3---------------------|------------------|


[G] [C]

eb|--------------3---------|---------0--------|
bb|--3---------3(0)3---3---|-1---3-----3-p1---|
gb|--0-------0-------0---0-|-0-0---0--------0-|
Db|------------------------|------------------|
Ab|------------------------|-3----------------|
Eb|--3---------------------|------------------|


[G] [C] [G]

eb|--------------3---------|---------0--------|--3--|
bb|--3---------3(0)3---3---|-1---3-----3-p1---|--3--|
gb|--0-------0-------0---0-|-0-0---0--------0-|--0--|
Db|------------------------|------------------|--0--|
Ab|------------------------|-3----------------|--2--|
Eb|--3---------------------|------------------|--3--|


RIFF I:
WITH DISTORTION:

1:43 - 2:02



eb|----------------|----------------|----------------|----------------|
bb|----------------|----------------|----------------|----------------|
gb|----------------|----------------|----------------|----------------|
Db|-----0---3----0-|-----0---3----0-|-----0---3----0-|-----0---3----0-|
Ab|---4---1----3---|---4---1----3---|---4---1----3---|---4---1----3---|
Eb|-3--------1-----|-3--------1-----|-3--------1-----|-3--------1-----|
eb|----------------|----------------|----------------|----------------|
bb|----------------|----------------|----------------|----------------|
gb|----------------|----------------|----------------|----------------|
Db|-----0---3----0-|-----0---3----0-|-----0---3----0-|-----0---3----0-|
Ab|---4---1----3---|---4---1----3---|---4---1----3---|---4---1----3---|
Eb|-3--------1-----|-3--------1-----|-3--------1-----|-3--------1-----|
eb|----------------|----------------|----------------|----------------|
bb|----------------|----------------|----------------|----------------|
gb|----------------|----------------|----------------|----------------|
Db|-----0---3----0-|-----0---3----0-|-----0---3----0-|-----0---3----0-|
Ab|---4---1----3---|---4---1----3---|---4---1----3---|---4---1----3---|
Eb|-3--------1-----|-3--------1-----|-3--------1-----|-3--------1-----|


RIFF II:

2:03 - 2:16



eb|-------------------------|-------------------------|
bb|--------------------3-h6-|-------------------------|
gb|------3--5-5--3-h5--3-h5-|------3--5-5--3-h5--5-p3-|
Db|-5-5--3--5-5--3-h5--3----|-5-5--3--5-5--3-h5--5-p3-|
Ab|-5-5--1--3-3-------------|-5-5--1--3-3-------------|
Eb|-3-3---------------------|-3-3---------------------|
eb|-------------------------|-------------------------|
bb|--------------------3-h6-|-------------------------|
gb|------3--5-5--3-h5--3-h5-|------3--5-5--3-h5--5-p3-|
Db|-5-5--3--5-5--3-h5--3----|-5-5--3--5-5--3-h5--5-p3-|
Ab|-5-5--1--3-3-------------|-5-5--1--3-3-------------|
Eb|-3-3---------------------|-3-3---------------------|


2:17 - 2:30



eb|----------------|----------------|----------------|----------------|
bb|----------------|----------------|----------------|----------------|
gb|----------------|----------------|----------------|----------------|
Db|-----0---3----0-|-----0---3----0-|-----0---3----0-|-----0---3----0-|
Ab|---4---1----3---|---4---1----3---|---4---1----3---|---4---1----3---|
Eb|-3--------1-----|-3--------1-----|-3--------1-----|-3--------1-----|
eb|----------------|----------------|----------------|----------------|
bb|----------------|----------------|----------------|----------------|
gb|----------------|----------------|----------------|----------------|
Db|-----0---3----0-|-----0---3----0-|-----0---3----0-|-----0---3----0-|
Ab|---4---1----3---|---4---1----3---|---4---1----3---|---4---1----3---|
Eb|-3--------1-----|-3--------1-----|-3--------1-----|-3--------1-----|


2:31 - 2:44



eb|-------------------------|-------------------------|
bb|--------------------3-h6-|-------------------------|
gb|------3--5-5--3-h5--3-h5-|------3--5-5--3-h5--5-p3-|
Db|-5-5--3--5-5--3-h5--3----|-5-5--3--5-5--3-h5--5-p3-|
Ab|-5-5--1--3-3-------------|-5-5--1--3-3-------------|
Eb|-3-3---------------------|-3-3---------------------|
eb|-------------------------|-------------------------|
bb|--------------------3-h6-|-------------------------|
gb|------3--5-5--3-h5--3-h5-|------3--5-5--3-h5--5-p3-|
Db|-5-5--3--5-5--3-h5--3----|-5-5--3--5-5--3-h5--5-p3-|
Ab|-5-5--1--3-3-------------|-5-5--1--3-3-------------|
Eb|-3-3---------------------|-3-3---------------------|


CHORUS RIFF:

2:44 - 2:58



eb|-------------------|-----------------------|
bb|-----------------6-|---------------------3-|
gb|---------------5-5-|---------------5-3---3-|
Db|-5-5-5-5-5-5-5-3-3-|-5-5-5-5-5-5---5-3-3-3-|
Ab|-5-5-5-5-5-5-5-----|-5-5-5-5-5-3-3-3-------|
Eb|-3-3-3-3-3-3-3-----|-3-3-3-3-3-------------|
eb|-------------------|-----------------------|
bb|-----------------6-|---------------------3-|
gb|---------------5-5-|---------------5-3---3-|
Db|-5-5-5-5-5-5-5-3-3-|-5-5-5-5-5-5---5-3-3-3-|
Ab|-5-5-5-5-5-5-5-----|-5-5-5-5-5-3-3-3-------|
Eb|-3-3-3-3-3-3-3-----|-3-3-3-3-3-------------|


2:58 - 3:11



eb|----------------|----------------|----------------|----------------|
bb|----------------|----------------|----------------|----------------|
gb|----------------|----------------|----------------|----------------|
Db|-----0---3----0-|-----0---3----0-|-----0---3----0-|-----0---3----0-|
Ab|---4---1----3---|---4---1----3---|---4---1----3---|---4---1----3---|
Eb|-3--------1-----|-3--------1-----|-3--------1-----|-3--------1-----|
eb|----------------|----------------|----------------|----------------|
bb|----------------|----------------|----------------|----------------|
gb|----------------|----------------|----------------|----------------|
Db|-----0---3----0-|-----0---3----0-|-----0---3----0-|-----0---3----0-|
Ab|---4---1----3---|---4---1----3---|---4---1----3---|---4---1----3---|
Eb|-3--------1-----|-3--------1-----|-3--------1-----|-3--------1-----|


3:11 - 3:25



eb|-------------------------|-------------------------|
bb|--------------------3-h6-|-------------------------|
gb|------3--5-5--3-h5--3-h5-|------3--5-5--3-h5--5-p3-|
Db|-5-5--3--5-5--3-h5--3----|-5-5--3--5-5--3-h5--5-p3-|
Ab|-5-5--1--3-3-------------|-5-5--1--3-3-------------|
Eb|-3-3---------------------|-3-3---------------------|
eb|-------------------------|-------------------------|
bb|--------------------3-h6-|-------------------------|
gb|------3--5-5--3-h5--3-h5-|------3--5-5--3-h5--5-p3-|
Db|-5-5--3--5-5--3-h5--3----|-5-5--3--5-5--3-h5--5-p3-|
Ab|-5-5--1--3-3-------------|-5-5--1--3-3-------------|
Eb|-3-3---------------------|-3-3---------------------|


3:25 - 3:38



eb|-------------------|-----------------------|
bb|-----------------6-|---------------------3-|
gb|---------------5-5-|---------------5-3---3-|
Db|-5-5-5-5-5-5-5-3-3-|-5-5-5-5-5-5---5-3-3-3-|
Ab|-5-5-5-5-5-5-5-----|-5-5-5-5-5-3-3-3-------|
Eb|-3-3-3-3-3-3-3-----|-3-3-3-3-3-------------|
eb|-------------------|-----------------------|
bb|-----------------6-|---------------------3-|
gb|---------------5-5-|---------------5-3---3-|
Db|-5-5-5-5-5-5-5-3-3-|-5-5-5-5-5-5---5-3-3-3-|
Ab|-5-5-5-5-5-5-5-----|-5-5-5-5-5-3-3-3-------|
Eb|-3-3-3-3-3-3-3-----|-3-3-3-3-3-------------|


GUITAR SOLO:

3:39 - 3:55
^^^^


eb|---------13-----------------------------------------------------------
bb|------------------------------------8/10-10h11h15p11p10h11p10---------
gb|-2----12b--12b-12b-10-h12-p10\9-h10--------------------------12p11p8\7
Db|----------------------------------------------------------------------
Ab|----------------------------------------------------------------------
Eb|----------------------------------------------------------------------
----------------------------------|------------------------------------|
----------------------------------|------------------------------------|
h8h11p8p7h8p7---------------------|----------------------------9-----8-|
-------------10-p8p7h8h10p8p7-----|-------------12------11-------------|
-----------------------------10-9-|------------------------7-7---7/6---|
----------------------------------|-/11-10-10-10---10\9----------------|

^^ ^^^^


eb|------------------------------------------------------------------------------
bb|------------------------------------------------------------------------------
gb|-7b--7b----6h7p6-7h9p7p6h7h10p7p6h7h9p7p6h7h10p6h7h9-/10-9--------------------
Db|----------------------------------------------------------12p11-8\7h8h11p8p7\5
Ab|------------------------------------------------------------------------------
Eb|------------------------------------------------------------------------------
-------------------------|
-------------------------|
-------------------------|
--------------8----------|

8-7h8p7-5p4/5-8-Let ring-|


--------------6----------|


3:56 - 4:09



eb|----------------|----------------|----------------|----------------|
bb|----------------|----------------|----------------|----------------|
gb|----------------|----------------|----------------|----------------|
Db|-----0---3----0-|-----0---3----0-|-----0---3----0-|-----0---3----0-|
Ab|---4---1----3---|---4---1----3---|---4---1----3---|---4---1----3---|
Eb|-3--------1-----|-3--------1-----|-3--------1-----|-3--------1-----|
eb|----------------|----------------|----------------|----------------|
bb|----------------|----------------|----------------|----------------|
gb|----------------|----------------|----------------|----------------|
Db|-----0---3----0-|-----0---3----0-|-----0---3----0-|-----0---3----0-|
Ab|---4---1----3---|---4---1----3---|---4---1----3---|---4---1----3---|
Eb|-3--------1-----|-3--------1-----|-3--------1-----|-3--------1-----|


4:10 - 4:23



eb|-------------------------|-------------------------|
bb|--------------------3-h6-|-------------------------|
gb|------3--5-5--3-h5--3-h5-|------3--5-5--3-h5--5-p3-|
Db|-5-5--3--5-5--3-h5--3----|-5-5--3--5-5--3-h5--5-p3-|
Ab|-5-5--1--3-3-------------|-5-5--1--3-3-------------|
Eb|-3-3---------------------|-3-3---------------------|
eb|-------------------------|-------------------------|
bb|--------------------3-h6-|-------------------------|
gb|------3--5-5--3-h5--3-h5-|------3--5-5--3-h5--5-p3-|
Db|-5-5--3--5-5--3-h5--3----|-5-5--3--5-5--3-h5--5-p3-|
Ab|-5-5--1--3-3-------------|-5-5--1--3-3-------------|
Eb|-3-3---------------------|-3-3---------------------|


4:23 - 4:53



eb|-------------------|-----------------------|
bb|-----------------6-|---------------------3-|
gb|---------------5-5-|---------------5-3---3-|
Db|-5-5-5-5-5-5-5-3-3-|-5-5-5-5-5-5---5-3-3-3-|
Ab|-5-5-5-5-5-5-5-----|-5-5-5-5-5-3-3-3-------|
Eb|-3-3-3-3-3-3-3-----|-3-3-3-3-3-------------|
eb|-------------------|-----------------------|
bb|-----------------6-|---------------------3-|
gb|---------------5-5-|---------------5-3---3-|
Db|-5-5-5-5-5-5-5-3-3-|-5-5-5-5-5-5---5-3-3-3-|
Ab|-5-5-5-5-5-5-5-----|-5-5-5-5-5-3-3-3-------|
Eb|-3-3-3-3-3-3-3-----|-3-3-3-3-3-------------|
eb|-------------------|-----------------------|
bb|-----------------6-|---------------------3-|
gb|---------------5-5-|---------------5-3---3-|
Db|-5-5-5-5-5-5-5-3-3-|-5-5-5-5-5-5---5-3-3-3-|
Ab|-5-5-5-5-5-5-5-----|-5-5-5-5-5-3-3-3-------|
Eb|-3-3-3-3-3-3-3-----|-3-3-3-3-3-------------|
eb|-------------------|-------------------------|
bb|-----------------6-|---------------------3---|
gb|---------------5-5-|---------------5-3---3---|
Db|-5-5-5-5-5-5-5-3-3-|-5-5-5-5-5-5---5-3-3-3---|
Ab|-5-5-5-5-5-5-5-----|-5-5-5-5-5-3-3-3-------5-|
Eb|-3-3-3-3-3-3-3-----|-3-3-3-3-3-------------3-|



E N D

ISPLACER
ICQ: 69144252 NICK: isplacer
E-MAIL: Dark_Mantra@hotmail.com

Chords List

Chord: Atomica - Wolfgang - tab, song lyric, sheet, guitar, ukulele
Maybe you like