Chord/Tab song: Toussaint L'Overture - Santana

Chord,Tablature, lyric, sheet, guitar, ukulele song: Toussaint L'Overture - Santana - ( Written by Gregg Rolie, Michael Shrieve and Michael Carab...)

3 months ago32 Other Songs Santana
--
Written by Gregg Rolie, Michael Shrieve and Michael Carabello(1971)
Tab by david2077@hotmail.com ful Full Bend trl~~ Trill
Pb Prebend ^```^ Hold Bend
[Cm] ful [Bb] ~~~~ [Ab] ful ful ful


|-----------10^8-----|------10-10-11^10-8--|---------------------|
|11^(11)^8------11^8-|11-----------------11|-11^---11^(11)^8-----|
|--------------------|---------------------|----------------10^--|
|--------------------|---------------------|---------------------|
|--------------------|---------------------|---------------------|
|--------------------|---------------------|---------------------|

[G] ful ful [Cm] ful~~~~~[Bb]~~~~~~~~~~~[Ab]~~~


|--------------------------|-13^````|``````````|```^(13)-----|
|-11-----------------------|--------|----------|---------13--|
|---10^--10^(10)^8---8-----|--------|----------|-------------|
|-----------------10---(10)|--------|----------|-------------|
|--------------------------|--------|----------|-------------|
|--------------------------|--------|----------|-------------|

ful ful


|-1011-10-11-10-11^10--11^``|``^(11)-10-9-8-------------------|
|---------------------------|---------------11-10-9-8-----8-8-|
|---------------------------|------------------------10^------|
|---------------------------|---------------------------------|
|---------------------------|---------------------------------|
|---------------------------|---------------------------------|

ful trl~~~ ful~~~


|----------------------------|-----------------------------|
|11^8------------------------|-----------------------------|
|----10^(10)-8-10(810)^8-8-8-|-10^----10^8-10^8^10^8-----8-|
|----------------------------|------------------------10---|
|----------------------------|-----------------------------|
|----------------------------|-----------------------------|

ORGAN SOLO:
(...REPEAT....) (....REPEAT 20 TIMES.....)


|-------------||-----------||8-8--88------|8-8--88---||88-88---|88-88-----|
|-----8------8||-----------||8-8--88--10--|8-8--88---||88-88-10|88-88----8|
|8^10---8^10--||8\7--------||8-8--88--10--|8-8--88---||88-88-10|88-88---x-|
|:-----------:||-----------||:------------|---------:||--------|----------|
|-------------||-------8^10||-------------|----------||--------|----------|
|-------------||-----------||-------------|----------||--------|----------|

GUITAR SOLO: rake..
~~~~~~ ful... ful ~~~~


|-----------------|-----------------------------------|
|11-11------8-----|--------------------------------8--|
|-------------10^```^(10)^8----8^10^(10)-8^10^8---x---|
|-----------------|---------10------------------------|
|-----------------|-----------------------------------|
|-----------------|-----------------------------------|

ful ful ful


|---10-13^10--10-----------------|-----8--------------------------|
|11---------11--11^8-------------|-8-----11-8---------------------|
|--------------------10^(10)^8---|10^--------10^(10)--8^10^8^10^8-|
|-----------------------------10-|--------------------------------|
|--------------------------------|--------------------------------|
|--------------------------------|--------------------------------|

ful


|------------------------|-----------8----|----------------------|
|--8-10/11-10------------|8-8-7-7---11^---|-8-10/11-10-----------|
|--8-10/11-10---(10)^8---|8-8-7-7---------|-8-10/11-10---(10)^8--|
|---------------------10-|----------------|--------------------10|
|------------------------|----------------|----------------------|
|------------------------|----------------|----------------------|

ful


|-8-8-7-7--8-----------------|-----------------------|8-8-7-7--8--------8-|
|-8-8-7-7--8-----------------|-8-10/11-10------------|8-8-7-7--8----10--8-|
|-8-8-7-7--8----8-10^(10)^8--|-8-10/11-10---(10)^8---|8-8-7-7--8--1010--8-|
|-------------10-----------10|--------------------10-|------------1010----|
|----------------------------|-----------------------|--------------------|
|----------------------------|-----------------------|--------------------|

(............REPEAT............)


|-----------||-----------------|------------||--------------8-8|8\----|
|-----------||-----------------|------------||--------------8-8|8\----|
|-----------||-----------------|------------||--------------8-8|8\----|
|10\--------||:----------------|-----------:||-----------------|------|
|---\-------||-3-5-6-(6)/10----|3-----------||3----------------|------|
|------15\-3||---------------3-|--6--4-3--3-||--6--4-3-(3)/----|------|

"Loscueros mellaman" ful


|---------------------|---------------------| |-------|-8-----10-11-|
|---------------------|---------------------| |-------|11^----------|
|-5-8--7-5--8---------|5-8---7-5--8---------| |-5-8---|-------------|
|:-------------5----8-|--------------5--8--:| |-------|-------------|
|---------------------|---------------------| |-------|-------------|
|---------------------|---------------------| |-------|-------------|

ful Pb 1/2 ~~~


|10^11^10^8-----|-8-------8-8--|-------------------|------------------|
|----------11---|11^(11)-9-----|^11^(11)^8---------|-----------------8|
|---------------|--------------|-----------------7-|-8-7^8^7--7-8-----|
|---------------|--------------|---------------10--|--------10--------|
|---------------|--------------|------------/10----|------------------|
|---------------|--------------|-------------------|------------------|

Pb1/2 ful ful Pb1/2 ful


|-----------------------------------|----------8----8----|----------------|
|-----------------------------------|------8--11^----11-8|----------------|
|^10^(10)-(10)^(10)^8^10^8^7--------|7^8^10--------------|-^10^(10)^(10)--|
|----------------------------10-8-10|--------------------|----------------|
|-----------------------------------|--------------------|----------------|
|-----------------------------------|--------------------|----------------|

Pb1/2 Pb1/2 Pb1/2 ful


|------------------------------|---------------------|------------------8-|
|---------8---8---8---8--------|-8----8---------8----|--------------8^11--|
|-^10^(10)-----10------^10^(10)|-------^10^(10)--10^``^(10)^8\7^8^10------|
|-----------10-----10----------|---10----------------|--------------------|
|------------------------------|---------------------|--------------------|
|------------------------------|---------------------|--------------------|

ful ful ful ful ful ful ~~~~~~~~~~~~~~~~~~~~~~~~~~~~~~~~~~~~~~~~


|--8---10---11---13--|-15--1518^``|``18``18`18``|18`18`18`18`18``18``18``-|
|-11^--13^--14^--16^-|-18^--------|-------------|-------------------------|
|--------------------|------------|-------------|-------------------------|
|--------------------|------------|-------------|-------------------------|
|--------------------|------------|-------------|-------------------------|
|--------------------|------------|-------------|-------------------------|

ful ful ful ful......... ~~~~


|-20^(20)-20^(20)^-(20)\-|-8---8---8-----8-10^8-----|------10-10-11^10^8--|
|------------------------|11^`11``11``---------11^8-|11-----------------11|
|------------------------|--------------------------|---------------------|
|------------------------|--------------------------|---------------------|
|------------------------|--------------------------|---------------------|
|------------------------|--------------------------|---------------------|

ful ~~~~~ ful~~~ ORGAN SOLO:


|-11^--(11)---11-|10-9-8---------------------||--8---8-8-8---|-6---6-66---|
|----------------|-------11-10-9-8-----------||--8---8-8-8---|-6---6-66---|
|----------------|----------------10^---(10)\||--8---8-8-8---|-7---7-77---|
|----------------|---------------------------||-10--101010---|-8---8-88---|
|----------------|---------------------------||--------------|------------|
|----------------|---------------------------||--------------|------------|

2 GUITARS: END 2 GUITARS:
full.... ful ful ful


|------------|-----------|-----------------------------------|------8-11^-|
|------------|3-----11^```^(11)11^8--------------------------|-----8-8----|
|------------|4----------|---------10^(10)-8----------8--10--|810^--------|
|------------|5----------|-------------------10-8-10---10--10|------------|
|------------|5----------|-----------------------------------|------------|
|------------|3----------|-----------------------------------|------------|

| | | | |


|--4---4-44--|--3--3-----|-----------------------------------|------------|
|--4---4-44--|--3--3-----|-----------------------------------|------------|
|--5---5-55--|--4--4-----|-----------------------------------|------------|
|--6---6-66--|--5--5-----|-----------------------------------|------------|
|------------|-----------|-----------------------------------|------------|
|------------|-----------|-----------------------------------|------------|

ful ful~~ full..... Pb1/2 Pb1/2 Pb1/2 Pb


|-11^(11)^8------(0)-13^``|``^(13)-^13^(13)-^13^(13)-^13^(13)-^13--(13)\--|
|----------11^------------|-----------------------------------------------|
|-------------------------|-----------------------------------------------|
|-------------------------|-----------------------------------------------|
|-------------------------|-----------------------------------------------|
|-------------------------|-----------------------------------------------|

ful ful ful ful ful...


|-------------------------------------|---------------------------------|
|-------------------------------------|-------------------------11------|
|10^(10)^8----810^(10)^8----810^(10)^8|----810^(10)^8----810^```---10^--|
|----------10------------10-----------|-10------------10----------------|
|-------------------------------------|---------------------------------|
|-------------------------------------|---------------------------------|

"Vamonos, negra, abai-
(Pbful) ~~~ ful ful ful ful ful ful


|-------------------------|-------------|--8---8---8--|----10--10---(10)\-|
|-------------------------|-------------|-11^-11^-11^-|13^-13^-13^--(13)\-|
|10--8--10-^10^(10)-8-----|--8---7--7\--|-------------|-------------------|
|----------------------10-|-----------\-|-------------|-------------------|
|-------------------------|------------\|-------------|-------------------|
|-------------------------|-------------|-------------|-------------------|

-lar mi Guaguanco" OUTRO GUITAR SOLO:
ful ful ful ful ful full........................


|11--11---11--10--|-13^----x-8\| |---------|-------------------------|
|14^-14^--14^-13^-|--------x-8\|ORGAN|3----18^-|18^-18^-18^-18^-18^-18^--|
|-----------------|--------x-8\|SOLO |4--------|-------------------------|
|-----------------|------------| |5--------|-------------------------|
|-----------------|------------| |5--------|-------------------------|
|-----------------|------------| |3--------|-------------------------|

ful 1/2~~~~~~~~~~~~~~~~ 1/2.......... ful


|----------------------|-17^```17```17```17--|17^```17```17---18^----|
|18^18-16---16--18^----|---------------------|-----------------------|
|--------17----------17|---------------------|-----------------------|
|----------------------|---------------------|-----------------------|
|----------------------|---------------------|-----------------------|
|----------------------|---------------------|-----------------------|

ful ful ful full~~~~~~~~~~~~~~~~~~~~


|18^---18-15----------------------------|---------17^`17``17``17``17```|`
|-----------18^(18)^16--18--1618^--18^16|---18--16---------------------|
|---------------------17--17------------|-17--17-----------------------|
|---------------------------------------|------------------------------|
|---------------------------------------|------------------------------|
|---------------------------------------|------------------------------|

~~~~~~~~~~~~ full~~~............ ful~~~ ful


|17``17``17---18^````|`18```18```18(18)\-|----------------|--8-----10---|
|--------------------|-------------------|-----------8-11-|-11^----13^--|
|--------------------|-------------------|---7-8--10------|-------------|
|--------------------|-------------------|10--------------|-------------|
|--------------------|-------------------|----------------|-------------|
|--------------------|-------------------|----------------|-------------|

ful ful ful full~~~~~~~~~~~~~~~~~~~~~~~~~~~~~~~~~~~~~~~~~~


|11---13---15--|--18^``18``|`18```18``18``18``18```18``18``18``18-|
|14^--16^--18^-|-----------|--------------------------------------|
|--------------|-----------|--------------------------------------|
|--------------|-----------|--------------------------------------|
|--------------|-----------|--------------------------------------|
|--------------|-----------|--------------------------------------|

full........... full........... full........... full...........


|-18^``18``18``18--18^``18``18``18--18^``18``18``18--18^``18``18``18--|
|---------------------------------------------------------------------|
|---------------------------------------------------------------------|
|---------------------------------------------------------------------|
|---------------------------------------------------------------------|
|---------------------------------------------------------------------|

full........... full........... ful ful ful ful


|18^``18``18``18--18^``18``18``18-18^(18)\-10-|---13^(13)-11-13^|
|------------------------------------------13^|-----------------|
|---------------------------------------------|-----------------|
|---------------------------------------------|-----------------|
|---------------------------------------------|-----------------|
|---------------------------------------------|-----------------|

~~~ ful (Pb1/2) Trill~~~~~


|^(13)--11-13^(13)^11-13^(13)11-|13-11\10----17^---|^13^(13)-11-(1011)^10--|
|-------------------------------|------------------|-----------------------|
|-------------------------------|------------------|-----------------------|
|-------------------------------|------------------|-----------------------|
|-------------------------------|------------------|-----------------------|
|-------------------------------|------------------|-----------------------|

Pb1/2 ful trill~~~~ full.......~~~~~~~~~~~~~~~


|----------------------------|-----8-13^```13``13-|----|----(13)\--|
|----------------------------|11^-----------------|----|-----------|
|-^10^(10)^(10)(810)^8---8---|--------------------|----|-----------|
|----------------------------|--------------------|----|-----------|
|----------------------------|--------------------|----|-----------|
|----------------------------|--------------------|----|-----------|

ful ful


|-10^11-10(10)^11-10--11-10^11^10-|----------------------8-10^8-----|
|---------------------------------|11^(11)^8-------------------11^8-|
|---------------------------------|---------10^(10)^8---------------|
|---------------------------------|------------------10-------------|
|---------------------------------|---------------------------------|
|---------------------------------|---------------------------------|

ful ful........ ful


|-----------10-10-11^10-8---|--8---8--------|-----------------------------|
|11-(11)\3----------------11|-11^---11-8----|-11--------------------------|
|---------------------------|-----------10^`|`````^(10)^(10)-8(108)^10^8--|
|---------------------------|---------------|-----------------------------|
|---------------------------|---------------|-----------------------------|
|---------------------------|---------------|-----------------------------|

(..REPEAT...) ful~~~ trl~~~~~~ (..REPEAT...)


|-----------| |-------------------| |-----------| |--------|
|----8-----8| |-------------------| |----8-----8| |--------|
|8^10--8^10-| |-10^-----(810)^8---| |8^10--8^10-| |-8\-----|
|:---------:| |-------------------| |:---------:| |---\----|
|-----------| |-------------------| |-----------| |--------|
|-----------| |-------------------| |-----------| |--------|

Chords List

Chord: Toussaint L'Overture - Santana - tab, song lyric, sheet, guitar, ukulele
Maybe you like