Chord/Tab song: Together - Elisa

Chord,Tablature, lyric, sheet, guitar, ukulele song: Together - Elisa - ( Together - Elisa |------------------------------------...)

3 years ago365 Pearl Days (2004) Elisa
--
Together - Elisa



|----------------------------------------|
|----------------------------------------|
|-5-5-5---5-5-5--5-6--3-3-3---3-3-3--3-6-|
|-5-5-5---5-5-5--5-6--3-3-3---3-3-3--3-6-|
|-3-3-3---3-3-3--3-4--1-1-1---1-1-1--1-4-|
|----------------------------------------|
|-3-----3-----3------1-----1-----1-------|
|:--4-----4-----4-:-:--2-----2-----2-:---|
|-----5-----5------------3-----3---------|


[C]Toge[C]ther[C-C#], here we are, b[Bb]oy an[Bb]d gir[Bb-C#]l walk alone
Together moving like clouds
Together billions the soldiers of love in the dark
[C]Toge[C]ther[C-C#] until one will [Bb]see t[Bb]he li[Bb-Ab]ght

[Eb]All the way alone, alone, alone, alone

[C]But [C]toge[C-C#]ther we'll always want t[Bb]o be [Bb][Bb][Ab]

(chorus)
Do you w[Cm]anna keep safe and keep control
and stay[Ab] rich with your money and decide[F] for it all? (X2)
[C]Do y[C]ou? [C-C#][Bb][Bb][Bb-Ab]

Together the bullets fly just like birds in the sky
Together we're both paralyzed
Together drop by drop one by one til' water falls
If it's a game we're supposed to know we're playing

How come some don't know?
Don't know, don't know, don't know

And together is all they need to be

(chorus)

BRIDGE
Do you w[Cm]anna keep safe and keep control
and stay[Eb] rich of your money and decide for it all?
Do you w[Ab]anna keep safe and keep control
and stay[F] rich of your money and decide for it all?
[C]Do y[C]ou? [C-C#][Bb][Bb][Bb-Ab]

[C]Toge[C]ther[C-C#] here we are, bo[Bb]y and[Bb] girl[Bb-C#] walk alone
[C]Toge[C]ther[C-C#] moving like clo[Bb]uds [Bb][Bb-Ab]

(chorus)

CIAO
CLAUDIO

Chords List

Chord: Together - Elisa - tab, song lyric, sheet, guitar, ukulele
Maybe you like