Chord/Tab song: Time Won't Let Me Go - The Bravery

Chord,Tablature, lyric, sheet, guitar, ukulele song: Time Won't Let Me Go - The Bravery - ( This is by ear and I'm 11 so it may not be perfect Stand...)

--
This is by ear and I'm 11 so it may not be perfect

Standard tuning

LEAD GUITAR:

Main riff (A)


|-3--5-3---------0---------|
|---------1--1-----3-------|
|--------------2-----------|
|--------------------------|
|--------------------------|
|--------------------------|


Main riff (B)


|-3--5-3---------0------------|
|---------1--1-----3----------|
|--------------2------4/2/0---|
|-----------------------------|
|-----------------------------|
|-----------------------------|


BACKING GUITAR(plays during chorus):

(time Won't let me go)


|-5-5-5-5-5-5-5-5-3-3-3-3-3-3-3-3-7-7-7-7-7-7-7-7-7-7-7-7-7-7-7-7-|
|-----------------------------------------------------------------|
|-----------------------------------------------------------------|
|-----------------------------------------------------------------|
|-----------------------------------------------------------------|
|-----------------------------------------------------------------|


Just play the chords for the verse:

VERSE
[F]Whenever I [C]look back
[G]On the best days of my [A]life
[F]I think I [C]saw them all on T[G].V.
[F]I am so [C]homesick now for
[G]Someone that I [A]never knew
[F]I am so [C]homesick now for
[G]Someplace I will [A]never be

CHORUS
[F]Tim[C]e won't let me [G]go
[F]Tim[C]e won't let me [G]go
[F]If I could do it [C]all again
[G]I'd go back and change everything but
[F]tim[C]e won't let me [G]go

VERSE
[F]I never had a '[C]Summer of 6[G]9'[A]
[F]Never had a [C]Cherry Valance of my [G]own
[F]All these precious [C]moments
[G]You promised me would [A]come in time
[F]So where was [C]I when I missed [G]mine?

CHORUS

(Ba ba ba ba ba...)

CHORUS

(Ba ba ba ba ba...)



--------------------

Chords List

Chord: Time Won't Let Me Go - The Bravery - tab, song lyric, sheet, guitar, ukulele
Maybe you like