Chord/Tab song: The Whip Hand - The Mars Volta

Chord,Tablature, lyric, sheet, guitar, ukulele song: The Whip Hand - The Mars Volta - ( All tabs by Pedro Zappa -------------------------------...)

--
All tabs by Pedro Zappa


-----------------------------------------------------------------------------
-----------------------------------------------------------------------------


1. The Whip Hand

Intro

(wait) "When you leave the nights on"

Verse 1



G||--------------------|--------------------|
D||--------------------|--------------------|
A||--------------------|--------------------|
E||-7---7---7---7--7---|-7---7---7---7--7---|

[i] [i] [i] [i] [i] [i] [i] [i]

G||--------------------|--------------------||
D||--------------------|--------------------||
A||--------------------|--------------------||
E||-5---5---5---5--5---|-5---5---5---5--5---||

[i] [i] [i] [i] [i] [i] [i] [i]

G||--------------------|--------------------|
D||--------------------|--------------------|
A||--------------------|--------------------|
E||-7---7---7---7--7---|-7---7---7---7--7---|

[i] [i] [i] [i] [i] [i] [i] [i]

G||--------------------|--------------------||
D||--------------------|--------------------||
A||--------------------|--------------------||
E||-5---5---5---5--5---|-5---5---5---5--5-56||

[i] [i] [i] [i] [i] [i] [i] [i]

G||--------------------|--------------------|
D||--------------------|--------------------|
A||--------------------|--------------------|
E||-7---7---7---7--7---|-7---7---7---7--7---|

[i] [i] [i] [i] [i] [i] [i] [i]

G||--------------------|--------------------||
D||--------------------|--------------------||
A||--------------------|--------------------||
E||-5---5---5---5--5---|-5---5---5---5--5-6-||

[i] [i] [i] [i] [i] [i] [i] [i]

G||--------------------|--------------------|
D||--------------------|--------------------|
A||--------------------|--------------------|
E||-7---7---7---7--7---|-7---7---7---7--7---|

[i] [i] [i] [i] [i] [i] [i] [i]

G||--------------------|--------------------||
D||--------------------|--------------------||
A||--------------------|--------------------||
E||-5---5---5---5--5---|-5---5---5---5--5/--||

[i] [i] [i] [i] [i] [i] [i] [i]
Pre-Chorus 1



G||--------------------|--------------------|
D||--------------------|--------------------|
A||--------------------|--------------------|
E||-7---7---7\--2--2/--|-7---7---7\--2--2/--|

[i] [i] [i] [i] [i] [i] [i] [i]

G||--------------------|--------------------||
D||--------------------|--------------------||
A||--------------------|--------------------||
E||-5---5---5\--0--0/--|-5---5---5\--0--0/--||

[i] [i] [i] [i] [i] [i] [i] [i]

G||--------------------|--------------------|
D||--------------------|--------------------|
A||--------------------|--------------------|
E||--------------------|--------------------|

[i] [i] [i] [i] [i] [i] [i] [i]

G||--------------------|--------------------|
D||--------------------|--------------------|
A||--------------------|--------------------|
E||--------------------|--------------------|

[i] [i] [i] [i] [i] [i] [i] [i]
Chorus 1



G||--------------------|--------------------|
D||--------------------|--------------------|
A||-7---7---7----------|---7/--8\--6-----3/-|
E||-------------8------|--------------------|

[i] [i] [i] [i] [i] [i] [i] [i]

G||--------------------|--------------------|| x4
D||--------------------|--------------------||
A||-7---7---7----------|-6---3---6--/3-/3/--||
E||-------------8------|--------------------||

[i] [i] [i] [i] [i] [i] [i] [i]
Verse 2



G||--------------------|--------------------|
D||--------------------|--------------------|
A||--------------------|--------------------|
E||-7---7---7---7--7---|-7---7---7---7--7-7-|

[i] [i] [i] [i] [i] [i] [i] [i]

G||--------------------|--------------------||
D||--------------------|--------------------||
A||--------------------|--------------------||
E||-5---5---5---5--5---|-5---5---5---5--5-5-||

[i] [i] [i] [i] [i] [i] [i] [i]

G||--------------------|--------------------|
D||--------------------|--------------------|
A||--------------------|--------------------|
E||-7---7---7---7--7---|-7---7---7---7--7-76|

[i] [i] [i] [i] [i] [i] [i] [i]

G||--------------------|--------------------||
D||--------------------|--------------------||
A||--------------------|--------------------||
E||-5---5---5---5--5---|-5---5---5---5--5-56||

[i] [i] [i] [i] [i] [i] [i] [i]

G||--------------------|--------------------|
D||--------------------|--------------------|
A||--------------------|--------------------|
E||-7---7---7---7--7---|-7---7---7---7--7-7-|

[i] [i] [i] [i] [i] [i] [i] [i]

G||--------------------|--------------------||
D||--------------------|--------------------||
A||--------------------|--------------------||
E||-5---5---5---5--5---|-5---5---5---5--556-||

[i] [i] [i] [i] [i] [i] [i] [i]

G||--------------------|--------------------|
D||--------------------|--------------------|
A||--------------------|--------------------|
E||-7---7---7---7--7---|-7---7---7---7--7---|

[i] [i] [i] [i] [i] [i] [i] [i]

G||--------------------|--------------------||
D||--------------------|--------------------||
A||--------------------|--------------------||
E||-5---5---5---5--5---|-5---5---5---5--5-6-||

[i] [i] [i] [i] [i] [i] [i] [i]

G||--------------------|--------------------|
D||--------------------|--------------------|
A||--------------------|--------------------|
E||-7---7---7---7--7---|-7---7---7---7--7-7-|

[i] [i] [i] [i] [i] [i] [i] [i]

G||--------------------|--------------------||
D||--------------------|--------------------||
A||--------------------|--------------------||
E||-5---5---5---5--5---|-5---5---5---5--5---||

[i] [i] [i] [i] [i] [i] [i] [i]
Pre-Chorus 2



G||--------------------|--------------------|
D||--------------------|--------------------|
A||--------------------|--------------------|
E||-7---7---7\--2--2/--|-7---7---7\--2--2/--|

[i] [i] [i] [i] [i] [i] [i] [i]

G||--------------------|--------------------||
D||--------------------|--------------------||
A||--------------------|--------------------||
E||-5---5---5\--0--0/--|-5---5---5\--0--0/--||

[i] [i] [i] [i] [i] [i] [i] [i]

G||--------------------|--------------------|
D||--------------------|--------------------|
A||--------------------|--------------------|
E||--------------------|--------------------|

[i] [i] [i] [i] [i] [i] [i] [i]

G||--------------------|--------------------|
D||--------------------|--------------------|
A||--------------------|--------------------|
E||--------------------|--------------------|

[i] [i] [i] [i] [i] [i] [i] [i]
Chorus 2



G||--------------------|--------------------|
D||--------------------|--------------------|
A||-7---7---7----------|---7/--8\--6-----3/-|
E||-------------8------|--------------------|

[i] [i] [i] [i] [i] [i] [i] [i]

G||--------------------|--------------------|| x4
D||--------------------|--------------------||
A||-7---7---7----------|-6---3---6--/3-/3/--||
E||-------------8------|--------------------||

[i] [i] [i] [i] [i] [i] [i] [i]
(wait) "...Blossom in the petals of an ECT"



G||--------------------|--------------------|
D||--------------------|--------------------|
A||-7---7---7----------|---7/--8\--6-----3/-|
E||-------------8------|--------------------|

[i] [i] [i] [i] [i] [i] [i] [i]

G||--------------------|--------------------|| x4
D||--------------------|--------------------||
A||-7---7---7----------|-6---3---6--/3-/3/--||
E||-------------8------|--------------------||

[i] [i] [i] [i] [i] [i] [i] [i]

Tab by Pedro Zappa


-----------------------------------------------------------------------------
-----------------------------------------------------------------------------

Chords List

Chord: The Whip Hand - The Mars Volta - tab, song lyric, sheet, guitar, ukulele
Maybe you like