Chord/Tab song: Surf Cowboy - Throwing Muses

Chord,Tablature, lyric, sheet, guitar, ukulele song: Surf Cowboy - Throwing Muses - ( Date: Fri, 27 Oct 1995 16:20:16 +0100 (MET) From: Gerald ...)

--
Date: Fri, 27 Oct 1995 16:20:16 +0100 (MET)
From: Gerald Audenis
Subject: by

Throwing Muses "Surf Cowboy"
extrait de l'album "University"
from : geralda@mech.kth.se

[Em] [Dm] [Am]
[Em] [Dm] [Am]



e:---------------------------------------------------|
B:--8-------8----------8-----------------8-----------|
G:----9-7-9---9-7-9------10-7-9------9-7---10-7-9----|
D:------------------------------7--------------------|
A:---------------------------------------------------|
E:---------------------------------------------------|
e:-------------------------------------|
B:--8---10-----------------8-----------|
G:----9----10-7-9------9-7---10-7-9----|
D:----------------7--------------------|
A:-------------------------------------|
E:-------------------------------------|


[Bm] I [C#m]slip under the [D]water,
[Bm] I [C#m]fall into t[D]he sea...
[Bm] Co[C#m]me [D]everyone...
[Bm] Co[C#m]me [D]everyone...
[Bm] Co[C#m]me[D]

( Tab from: http://www.guitartabs.cc/tabs/t/throwing_muses/surf_cowboy_tab.html )


e:--7----8--------------7----8----------|
B:----10---10---10--------10---10---10--|
G:------------9----9--------------9-----|
D:--------------------------------------|
A:--------------------------------------|
E:--------------------------------------|
e:--7----8----------------------------|
B:----10---10---10----------8---------|
G:------------9----9----9-7---10-7-9--|
D:------------------------------------|
A:------------------------------------|
E:------------------------------------|
e:--8-7-------------------------------------------------------|
B:------10-8--------------------------------------------------|
G:-----------10-9-7-------------------------------------------|
D:------------------10-9-7-5---5-7---5-7---5-7---5-7---5-7----|
A:---------------------------------------7-----------7--------|
E:---------------------------5-----5-----------5-----------5--|


~~~~~~~~~~~~~~~~~~~~~~~~~~~~~~~~~~
~ not sure of this up, I only have
~ an accoustic guitar!!!!!!!!
~
~~~~~~~~~~~~~~~~~~~~~~~~~~~~~~~~~~



e:---------------------------------------------------|
B:---------------------------------------------------|
G:---------------------------------------------------|
D:--7-5----------------5---7------------5---7--------|
A:------8-7-5------------7---8-5-7--------7---8-5-7--|
E:------------8-7-5----------------5-----------------|


I slip under the water,
I fall into the sea...
Come everyone...
Come everyone...
Come



e:----------------------------------|
B:------8-------------9---10--------|
G:--9-7---10-7-9--------9----10-7-9-|
D:---------------7------------------|
A:----------------------------------|
E:----------------------------------|
e:--7----8-7----7----------------------|
B:----10-----10---10-------------------|
G:----------------------9-7-10-7-------|
A:-------------------------------10-7--|
E:-------------------------------------|


C'est tout! suggestions? Commentaires? Toute remarque est bienvenue...

Gerald

That's all folks!

Chords List

Chord: Surf Cowboy - Throwing Muses - tab, song lyric, sheet, guitar, ukulele
Maybe you like