Chord/Tab song: Somewhere - Default

Chord,Tablature, lyric, sheet, guitar, ukulele song: Somewhere - Default - ( The Fallout Standard Tuning: [E] [A] [D] [G] [B] [E] T...)

--
The Fallout

Standard Tuning:

[E] [A] [D] [G] [B] [E]
T use thumb

Intro:

Fig. 1 x2



e---------------------------------------------------------
b-2----2-2--0--------2p0-----2----2-2--0--------2p0-------
g-3----3-3------3------------3----3-3------3--------------
d-4----4-4--------4------4---4----4-4--------4-------4----
a-4----4-4-------------------4----4-4---------------------
e-2----2-2-------------------2----2-2---------------------

T T T T T T



e---------------------------------------------------------
b-2----2-2--0--------2p0-----2----2----0------------------
g-3----3-3------3------------3----3-3--------x-x-x-x-2----
d-4----4-4--------4------4---4----4-4--------x-x-x-x-2----
a-4----4-4-------------------4----4-4--------x-x-x-x-2----
e-2----2-2-------------------2----2-2--------x-x-x-x-0----

T T T T T T

Verses: x4



e---------------------------------------------------------
b-2----2-2--0--------2p0-----2----2-2--0--------2p0-------
g-3----3-3------3------------3----3-3------3--------------
d-4----4-4--------4------4---4----4-4--------4-------4----
a-4----4-4-------------------4----4-4---------------------
e-2----2-2-------------------2----2-2---------------------

T T T T T T

Pre Chorus:



e---------------------------------
b---------------------------------
g-2---2--2--4-----x-x-x-x-4-------
d-2---2--2--4-----x-x-x-x-2-------
a-0---0--0--2-----x-x-x-x-2-------
e-------------------------0-------
e---------------------------------------------------------
b-2----2-2--0--------2p0-----2----2-2--0--------2p0-------
g-3----3-3------3------------3----3-3------3--------------
d-4----4-4--------4------4---4----4-4--------4-------4----
a-4----4-4-------------------4----4-4---------------------
e-2----2-2-------------------2----2-2---------------------

T T T T T T



e------------------------------------------------------------
b---------------------------------2----2-2--0--------0-------
g-2---2--2--4-----x-x-x-x-4-------3----3-3------3------------
d-2---2--2--4-----x-x-x-x-2-------4----4-4--------4-----x-x--
a-0---0--0--2-----x-x-x-x-2-------4----4-4--------------x-x--
e-------------------------0-------2----2-2--------------x-x--

T T T

Chorus:



e-----------------------------------------------------------
b-3---------------------------------------------------------
g-2--------2------2--2---x-x--4---4--x-x--------------------
d-0--------2------2--2---x-x--4---4--x-x--4----4--4---x-x---
a----------0------0--0---x-x--2---2--x-x--4----4--4---x-x---
e-----------------------------------------2----2--2---x-x---
e-----------------------------------------------------------
b-3---3-3--x-x----------------------------------------------
g-2---2-2--x-x--1-----1-------------------------------------
d-0---0-0--x-x--2-----2-------4----4--------4----x--x-------
a---------------2-----2-------4----4--------4----x--x-------
e-------------------------0---2----2--------2----x--x-------
e-----------------------------------------------------------
b-3---------------------------------------------------------
g-2--------2------2--2---x-x--4---4--x-x---------------2----
d-0--------2------2--2---x-x--4---4--x-x--4----4-------2----
a----------0------0--0---x-x--2---2--x-x--4----4-------0----
e-----------------------------------------2----2------------
e-----------------------------------------------------------
b-3---3-3--x-x----------------------------------------------
g-2---2-2--x-x--1-----1-------------------------------------
d-0---0-0--x-x--2-----2-------4------------------x--x--x----
a---------------2-----2-------4------------------x--x--x----
e-------------------------0---2------------------x--x--x----


Interlude:



e------------------------------------------------------
b------------------------------------------------------
g------------------------------------------------------
d------------------------------------------------------
a------------------------------------------------------
e-2-5-2-0-2---2-5-2-0-2-------2-5-2-0-2---2-5-2-0-2----
e------------------------------------------------------
b------------------------------------------------------
g------------------------------------------------------
d------------------------------------------------------
a------------------------------------------------------
e-2-5-2-0-2---2-5-2-0-2-------2-5-2-0-2---2-5-2-0-7----


that?s about all

trevor jones
timmy91199@yahoo.ca

Chords List

Chord: Somewhere - Default - tab, song lyric, sheet, guitar, ukulele
Maybe you like