Chord/Tab song: Shameful - Winterpills

Chord,Tablature, lyric, sheet, guitar, ukulele song: Shameful - Winterpills - ( Song: Shameful Artist: Winterpills Album: The Light Divid...)

--
Song: Shameful
Artist: Winterpills
Album: The Light Divides

this song is super simple. hardest part is the strum pattern,
illustrated below. I just played it by ear, came out like this.
there are a couple more lead guitar parts, but they aren't too
important and its more ambience than anything.

Guitar 1 - Acoustic (EADGBe) Capo 2
Guitar 2 - Electric (EADGBe) Capo 2
Slightly distorted
Heavy reverb/delay

Capo 2

strum pattern:
[d] [d] [u] [d] [u] [d] [u]

e|-0---0-0-0-0-0-0-|
B|-1---1-1-1-3-3-1-|
G|-2---2-2-2-2-2-2-|
D|-2---2-2-2-2-2-2-|
A|-0---0-0-0-0-0-0-|
E|-----------------|


chords:
Am X02210
Asus4 X02230
[F]C [133211]032010
G 320033

Verse: Guitar 1
[Am]pilloried in cru[Asus4]shed mint
[Am]killing with a p[Asus4]ush pin
[Am]sand in eyes[Asus4]

vaulted in the deep rain
salted heart and mud stains
and baptized

Chorus: Guitar 1
[F]c: semaphore [C]sunrise
arthospore [G]moons above this [F]room
all of our [C]pleadings
all of the [G]noons and butcher?s [F]brooms
shameful the [C]hiding
painful the [Am]toxic [Asus4]fumes

lead fill during chorus: Guitar 2


e|-1-------0--------------------|
B|---1-------1-----0---0-1p0----|
G|-------------------2-------2--|
D|-----3-------2----------------| (x2)
A|------------------------------|
E|------------------------------|


Verse:
sleeping under bloodsheets
dreaming of her nervesweets
and her skins
memories in floodlights
orchids in a fistfight
no one wins
now it begins

Chorus:
c: semaphore sunrise
arthrospore moons above this room
all of our pleadings
all of the noons and butcher?s brooms
shameful the hiding
painful the toxic fumes

Solo:
Guitar 1: play verse
Guitar 2:


e|-8-7-------------------------------|
B|-----5---8-8-8\1--3--0-------------|
G|------------------------2---2------|
D|--------------------------------2--|
A|-----------------------------------|
E|-----------------------------------|
e|-8-7---------------------------------|
B|-----5---8-8-8\1--3-0-1--------------|
G|------------------------2---2-2-0----|
D|----------------------------------3--|
A|-------------------------------------|
E|-------------------------------------|


Chorus:
c: semaphore sunrise
arthrospore moons above this room
all of our pleadings
all of the noons and butcher?s brooms
all of our sighing
all the immune and fauve monsoons
shameful the hiding
painful the toxic fumes

Outro: play verse

Chords List

Chord: Shameful - Winterpills - tab, song lyric, sheet, guitar, ukulele
Maybe you like