Chord/Tab song: Ready, Set, Go - Tokio Hotel

Chord,Tablature, lyric, sheet, guitar, ukulele song: Ready, Set, Go - Tokio Hotel - ( INTRO: VERSO: [We were running..] [Been before..] ...)

3 months ago40 Other Songs Tokio Hotel
--
INTRO:



|----------------------|----------------------|
|----------------------|----------------------|
|-5--5--5--2--2--2--3--|-3--3--3--3--3--3--3--|
|----------------------|----------------------| x2


VERSO:

[We were running..] [Been before..]



|----------------------|----------------------| |---|---|
|----------------------|----------------------| |---|---|
|-5--5--5--2--2--2--3--|-3--3--3--3--3--3--3--| |---|---|
|----------------------|----------------------| x3 |-2-|-3-|


[We learned to live..] [Down this wall]



|----------------------|----------------------| |---|---|
|----------------------|----------------------| |---|---|
|-5--5--5--2--2--2--3--|-3--3--3--3--3--3--3--| |---|---|
|----------------------|----------------------| x3 |-2-|-3-|


[Too Young..]



|---------------------|---------------------|
|---------------------|---------------------|
|---------------------|---------------------|
|-3--3--3--5--5--5--2-|-3--3--3--5--5--5--2-|


RITORNELLO:

[Ready set go! It's time to run!]



|--------------------------|-------------------------|
|--------------------------|-------------------------|
|--5--5--5--7--7--7--7--3--|--3--3--3----------------|
|--------------------------|-----------3--3--3--3--3-| x2


[Together we can make it..]



|--------------------------|----------------------|
|--------------------------|----------------------|
|--7--7--7--7--7--7--7--7--|--3--3--3--3--3--5--7-|
|--------------------------|----------------------|


[The word is crashing down..]



|--------------------------|--------------------------|
|--------------------------|--------------------------|
|--7--7--7--7--7--7--7--7--|--3--3--3--3--3--3--3--3--|
|--------------------------|--------------------------|
|--------------------------|--------------------------|
|--------------------------|--------------------------|
|--5--5--5--5--5--5--5--5--|--2--2--2--2--2--2--2--2--|
|--------------------------|--------------------------|


PRE VERSO [0.58]:



|----------------------|----------------------|
|----------------------|----------------------|
|-5--5--5--2--2--2--3--|-3--3--3--3--3--3--3--|
|----------------------|----------------------| x2


VERSO:

[We are looking..] [wide awake..]



|----------------------|----------------------| |---|---|
|----------------------|----------------------| |---|---|
|-5--5--5--2--2--2--3--|-3--3--3--3--3--3--3--| |---|---|
|----------------------|----------------------| x3 |-2-|-3-|


[We learned to live..] [Morning break]



|----------------------|----------------------| |---|---|
|----------------------|----------------------| |---|---|
|-5--5--5--2--2--2--3--|-3--3--3--3--3--3--3--| |---|---|
|----------------------|----------------------| x3 |-2-|-3-|


[Too Young..]



|---------------------|---------------------|
|---------------------|---------------------|
|---------------------|---------------------|
|-3--3--3--5--5--5--2-|-3--3--3--5--5--5--2-|


RITORNELLO:

[Ready set go! It's time to run!]



|--------------------------|-------------------------|
|--------------------------|-------------------------|
|--5--5--5--7--7--7--7--3--|--3--3--3----------------|
|--------------------------|-----------3--3--3--3--3-| x2


[Together we can make it..]



|--------------------------|----------------------|
|--------------------------|----------------------|
|--7--7--7--7--7--7--7--7--|--3--3--3--3--3--5--7-|
|--------------------------|----------------------|


[The word is crashing down..]



|--------------------------|--------------------------|
|--------------------------|--------------------------|
|--7--7--7--7--7--7--7--7--|--3--3--3--3--3--3--3--3--|
|--------------------------|--------------------------|
|--------------------------|--------------------------|
|--------------------------|--------------------------|
|--5--5--5--5--5--5--5--5--|--2--2--2--2--2--2--2--2--|
|--------------------------|--------------------------|


INTERLUDE:



|--------------------------| |---------------------|
|--------------------------| |---------------------|
|-2-2--3-3--5-5--2-2-2-3-3-| |---------------------|
|--------------------------| x6 |-3--3--3--5--5--5--2-| x2


RITORNELLO1:

[READY SET GO IT'S TIME TO RUN!

[The sky is changing..]



|-------| |--------------------------|-------------------------|
|-------| |--------------------------|-------------------------|
|-5-5-5-| |--5--5--5--7--7--7--7--3--|--3--3--3----------------|
|-------| |--------------------------|-----------3--3--3--3--3-| x2


[Together we can make it..]



|--------------------------|----------------------|
|--------------------------|----------------------|
|--7--7--7--7--7--7--7--7--|--3--3--3--3--3--5--7-|
|--------------------------|----------------------|


[The word is crashing down..]



|--------------------------|--------------------------|
|--------------------------|--------------------------|
|--7--7--7--7--7--7--7--7--|--3--3--3--3--3--3--3--3--|
|--------------------------|--------------------------|
|--------------------------|--------------------------|
|--------------------------|--------------------------|
|--5--5--5--5--5--5--5--5--|--2--2--2--2--2--2--2--2--|
|--------------------------|--------------------------|


RITORNELLO2:

[Ready set go! It's time to run!]



|--------------------------|-------------------------|
|--------------------------|-------------------------|
|--5--5--5--7--7--7--7--3--|--3--3--3----------------|
|--------------------------|-----------3--3--3--3--3-| x2


[Together we can make it..]



|--------------------------|----------------------|
|--------------------------|----------------------|
|--7--7--7--7--7--7--7--7--|--3--3--3--3--3--5--7-|
|--------------------------|----------------------|


[The word is crashing down..]



|--------------------------|--------------------------|
|--------------------------|--------------------------|
|--7--7--7--7--7--7--7--7--|--3--3--3--3--3--3--3--3--|
|--------------------------|--------------------------|
|--------------------------|--------------------------|
|--------------------------|--------------------------|
|--5--5--5--5--5--5--5--5--|--2--2--2--2--2--2--2--2--|
|--------------------------|--------------------------|


[3.05 - Don't you turn around]



|----------------------|----------------------|
|----------------------|----------------------|
|-5--5--5--2--2--2--3--|-3--3--3--3--3--3--3--|
|----------------------|----------------------| x5


END:



|----------------------| |---------------|
|----------------------| |---------------|
|-5--5--5--2--2--2--3--| |-2-2--3-3--5-5-|
|----------------------| |---------------|


Tab by >BaD.TiGeR

Chords List

Chord: Ready, Set, Go - Tokio Hotel - tab, song lyric, sheet, guitar, ukulele
Maybe you like