Chord/Tab song: Mythology - VersaEmerge

Chord,Tablature, lyric, sheet, guitar, ukulele song: Mythology - VersaEmerge - ( VersaEmerge - Mythology (Acoustic) Tuning: Half Step down...)

--
VersaEmerge - Mythology (Acoustic)
Tuning: Half Step down

Intro: B5, D5, D, D/B, D/F#, G, Bm, F#, Bm

I've lo[Bm]oked right past the simple things
[D]What have my eyes mi[A]ssed?
Stuck i[Bm]n a space where no[D]thing seems[G] to fit[F#]
[Bm]You live a myth, obsessed with it
Qu[D]iet as the so[A]und
I'm al[Bm]ways asking [D]what it means
And n[G]ow I can't stop t[F#]wisting round and r[Bm]ound

[Bm]I've grown in[A]to this
[Bm]This myth with y[F#]ou

Repeat intro 2x:
B5, D5, D, D/B, D/F#, G, Bm, F#, Bm

I can't stop twisting around this storyline
Distorting my insides
I won't forget I'm drenched in it
'Cause I can't stop twisting around this storyline
Tangled words were never mine
I won't forget I'm lost in it

[Bm]Slowly bending backwards
Til my d[D]ays become miss[A]haped
You de[Bm]ftly sway my th[D]oughts with your fic[G]titious wa[F#]ys
[Bm]Nothing in me works the same
[D]You've got a lot to explain
[A]Still I'm asking
And st[G]ill I can't stop tw[F#]isting

[Bm]I've grown int[A]o this myth with you[Bm][G][F#]

Chorus




e|------------------------------------------------------------------|
B|------------------------------------------------------------------|
G|------------------------------------------------------------------|
D|4-------4-------4-------4-------4-------4-------4-------4---------|
A|--3---3---3---3---3---3---3---3---3---3---3---3---3---3---3---3---|
E|----2-------2-------2-------2-------3-------3-------3-------3-----|
e|------------------------------------------------------------------|
B|------------------------------------------------------------------|
G|------------------------------------------------------------------|
D|2-------2-------2-------2-------3-------3-------3-------3---------|
A|--3---3---3---3---3---3---3---3---2---2---2---2---2---2---2---2---|
E|----2-------2-------2-------2-------2-------2-------2-------2-----|


Knots and crosses
Skews
I fold in two
With this road we take
I've lost all control of everything, especially me
You've lost everything especially me
You bite my tongue
Now I believe

Chorus

Chords List

Chord: Mythology - VersaEmerge - tab, song lyric, sheet, guitar, ukulele
Maybe you like