Chord/Tab song: Mummy Light the Fire - The Young Knives

Chord,Tablature, lyric, sheet, guitar, ukulele song: Mummy Light the Fire - The Young Knives - ( Time signature: 2/4 Tempo: 98bpm Intro [C#]Mummy light t...)

--
Time signature: 2/4
Tempo: 98bpm

Intro
[C#]Mummy light the fire, light the fire, light the fire.x4

Verse 1
[F#m]Spinning on a [A]high wire [D]ride/ On a [E]cable [F#m]car/

Look a[F#m]round, there?s a [A]lot to [D]see/ From [E]where we [B]are.

Verse 2
Subma[F#m]rines under[A]neath our [D]feet/ [E]While we [F#m]sleep/

Lie a[F#m]wake in a [A]silent [D]grave/ [E]Six days [B]deep.


Pre-chorus
[E]Goodness [B]me/ [D]Bless my [C#]soul.


Chorus
[D]Mummy light the fire, light the fire, light the fire. Mummy l[G]ight the f[D]ire.x2

[F]Fear, I feel fear, I feel fear, I feel fear. I?m in [E]floods of [A]tears.

[D]Mummy light the fire, light the fire, light the fire. Mummy l[G]ight the f[D]ire.


Verse 3
[F#m]Break every [A]bone I [D]own/ Every [E]promise I [F#m]make/

I was [F#m]caught in a [A]stranger?s [D]stare/ My [E]first [B]mistake.


Bridge (chords same as verse)


e|--------|--------|--------|--------|--------|--------|--------|--------|--------|--------|
B|--------|--------|--------|--------|--------|--------|--------|--------|--------|--------|
G|----4---|----4---|6-------|--------|--------|--------|------6-|--------|------6-|--------|
D|6-7---7-|6-7---7-|----7---|4---4-7-|--4-7-4-|----6---|7---7---|----7---|7---7---|----7---|
A|--------|--------|--------|--------|--------|7-------|--------|--------|--------|--------|
E|--------|--------|--------|--------|--------|--------|--------|--------|--------|--------|
e|--------|--------|--------|--------|--------|--------|--------|--------|--------|--------|
B|--------|--------|--------|--------|--------|--------|--------|--------|--------|--------|
G|----4---|----4---|6-------|--------|--------|--------|----6---|--6-----|6-----6-|----6---|
D|6-7---7-|6-7---7-|----7---|4---4-7-|--4-7-4-|----6---|7-----7-|4---7-4-|--7-4---|7-4---7-|
A|--------|--------|--------|--------|--------|7-------|--------|--------|--------|--------|
E|--------|--------|--------|--------|--------|--------|--------|--------|--------|--------|



Chorus
[D]Mummy light the fire, light the fire, light the fire. Mummy l[G]ight the f[D]ire.x2

[F]Fear, I feel fear, I feel fear, I feel fear. I?m in [E]floods of [A]tears.

[D]Mummy light the fire, light the fire, light the fire. Mummy [G]light the [D]fire.


Outro
|F#m | |A |D | |E | x8

|C# | | |

Chords List

Chord: Mummy Light the Fire - The Young Knives - tab, song lyric, sheet, guitar, ukulele
Maybe you like