Chord/Tab song: Mentally Castrated - 8 Foot Sativa

Chord,Tablature, lyric, sheet, guitar, ukulele song: Mentally Castrated - 8 Foot Sativa - ( Tabbed by Syk // Sykotic_X 8 Foot Sativa - Mentally Cast...)

--
Tabbed by Syk // Sykotic_X

8 Foot Sativa - Mentally Castrated
Track 4 on their third album Breed the Pain (2004)

Tuning: C# [C# F# B E G# C# low to high]
Time: 4
[4]
Intro
[1] [2] [3] [4] [1] [2] [3] [4] [1] [2] [3] [4] [1] [2] [3] [4]

|----------------|7---8---------12|----------------|7---8-----------|
|0-7-8-0-107-0-8-|--0---100-1213--|0-7-8-0-107-0-8-|--0---10111211--|
|----------------|----------------|----------------|--------------12|
|----------------|----------------|----------------|----------------| x2
|----------------|----------------|----------------|----------------|
|----------------|----------------|----------------|----------------|


Pre-verse
[1] [2] [3] [4] [1] [2] [3] [4] [1] [2] [3] [4] [1] [2] [3] [4]

|----------------|----------------|----------------|----------------|
|----------------|----------------|----------------|----------------|
|----------------|----------------|----------------|----------------|
|----------------|------------9---|----------------|----------------|
|--------7~~~~~--|--7-0-----7---8-|--------7~~~~~--|--7-0-----7-----|
|00000000------0~~~~----7-8-------|00000000------0~~~~----7-8---8-7-|

(PM......) (PM......) \



|----------------|----------------|----------------|----------------| x2
|----------------|----------------|----------------|----------------|
|----------------|----------------|----------------|----------------| /
|----------------|------------109-|----------------|----------------|
|--------7~~~~~--|--7-0-----7-----|--------7~~~~~--|------------108-|
|00000000------0~~~~----7-8-------|00000000------0~~~~7-8(0)8-10----|

(PM......) (PM......)

Verse
[1] [2] [3] [4] [1] [2] [3] [4] [1] [2] [3] [4] [1] [2] [3] [4]

|----------------|----------------|----------------|----------------|
|----------------|----------------|----------------|-------[--------|
|----------------|----------------|----------------|-------[something
|----------------|----------------|----------------|-------[-h/p'd--| x2
|--------8-7~----|--------7-8-10--|--------8-7~--7~|--8-7-5[--with--|
|000-0~~~------1~|--0-0~~~--------|1-0-0~~~--------|-------[6,5,3,0?|

PM....... \



|-- T10 L11 --|1-2-3-1-2-3-1-2-|----------------|1-2-3-1-2-3-1-2-| x2
|----------------|----------------|----------------|----------------|
|----------------|----------------|--------bend slightly higher?-| /

|4444444444444444|TTTTTTLLLLLL8~~~|4444444444444444|TTTTTTLLLLLL8~~~|
|4444444444444444|TTTTTTLLLLLL8~~~|4444444444444444|TTTTTTLLLLLL8~~~|
|2222222222222222|8888889999996~~~|2222222222222222|8888889999996~~~|
PM.............. ..... ..... PM.............. ..... .....

Pre-chorus
[1] [2] [3] [4] [1] [2] [3] [4] [1] [2] [3] [4] [1] [2] [3] [4]

|----------------|----------------|----------------|----------------|
|----------------|----------------|----------------|----------------|
|----------------|----------------|----------------|----------------|
|----------------|--9~~~--10--9---|----------------|--------------7-| x2
|7---107-9hT9--9-|------7---7---10|7---107-9hT9--9-|--10~~--9---10--|
|-----p----p-11--|----------------|-----p----p-11--|------8---10----|


Chorus
[1] [2] [3] [4] [1] [2] [3] [4] [1] [2] [3] [4]

|----------------|----------------| |----------------|
|----------------|----------------| |----------------|
|----------------|----------------| x4, |----------------|
|----------------|--------------7-| but |--------107-7-9-|
|7-9-10--9-10~~0~~~~109-7---9-10--| final ~~~109-7---------|
|------8---------|-------(7)------| bar |----------------|


Pre-verse x1 instead of x2
Verse
Pre-chorus
Chorus

Bridge
[1] [2] [3] [4] [1] [2] [3] [4] [1] [2] [3] [4] [1] [2] [3] [4]

|----------------|----------------|----------------|----------------|
|----------------|----------------|----------------|----------------|
|----------------|----------------|----------------|----------------|
|----------------|----------------|----------------|----------------| x4
|----------------|--------------7-|----------------|--------------7-|
|000000001-3-2-1-|0000000--/6-6---|000000001-3-2-1-|0000000--/6-6---|

(PM...... .......) (PM...... .......)



|----------------|----------------|----------------|----------------|
|----------------|----------------|----------------|----------------|
|----------------|----------------|----------------|----------------|
|----9-----------|----------------|----9-----------|------------8~~~| x4
|------100-7-9-10|0---7-0---9---9-|------100-7-9-10|0---7-0---9-8~~~|
|000-------------|--8-----10--11--|000-------------|--8-----10--6~~~|


Verse
Pre-chorus
Chorus
Outro (same as Intro)
End with a vibrato on fret 9 of 3rd (E) string

Chords List

Chord: Mentally Castrated - 8 Foot Sativa - tab, song lyric, sheet, guitar, ukulele
Maybe you like