Chord/Tab song: Living in the End - O.A.R.

Chord,Tablature, lyric, sheet, guitar, ukulele song: Living in the End - O.A.R. - ( Band: O.A.R. Song: Living in the End Album: Live from Mad...)

2 years ago221 All Sides (2008) O.A.R.
--
Band: O.A.R.
Song: Living in the End
Album: Live from Madison Square Garden
Tabbed by: O-52-A-50-R

Intro (0:00-0:37) (Tip: Leave your fingers in the D chord position)



|---------------2---2---|
|----3--------3---3-----|
|0h2------0h2-----------|
|-----------------------|
|-----------------------|
|-----------------------|


Then repeat this till 0:37



|---------------2---2---|
|----3--------3---3-----|
|0h2------0h2-----------|
|------0----------------|
|-----------------------|
|-----------------------|


Verse (0:37-1:03)



|--------------------------|
|--------------------------|
|x-x-7~-x-x-7-x-x-7-x-x-7--|
|x-x-7~-x-x-7-x-x-7-x-x-7--|
|x-x-5~-x-x-5-x-x-5-x-x-5--|
|--------------------------|
|-------------------------|
|-------------------------|
|x-x-5-x-x-5-x-x-7-x-x-7--|
|x-x-5-x-x-5-x-x-7-x-x-7--|
|x-x-3-x-x-3-x-x-5-x-x-5--|
|-------------------------|
|--------------------------|
|--------------------------|
|x-x-7~-x-x-7-x-x-7-x-x-7--|
|x-x-7~-x-x-7-x-x-7-x-x-7--|
|x-x-5~-x-x-5-x-x-5-x-x-5--|
|--------------------------|
|-------------------------|
|-------------------------|
|x-x-5-x-x-5-x-x-7-x-x-7--|
|x-x-5-x-x-5-x-x-7-x-x-7--|
|x-x-3-x-x-3-x-x-5-x-x-5--|
|-------------------------|


Lyrics for Verse 1

An easy operator on the side of the road
A million dollar man in a lower-class home
Chopping trees for needs of a spiritual kind
Forever getting low while he tried to be high
He was an early morning eagle flying through from the fire
Barely getting over forget getting by
But it's all the same to Billy Kincaid
If he had to do it over he would do it the same

Chorus (1:03-1:13)



|----------3-3-------2-2--|
|1-1-x-x-x-3-3-x-x-x-3-3--|
|2-2-x-x-x-0-0-x-x-x-2-2--|
|2-2-x-x-x-0-0-x-x-x-0-0--|
|0-0-------2-2-------0-0--|
|0-0-------3-3------------|
|----------3-3-------2-2--|
|1-1-x-x-x-3-3-x-x-x-3-3--|
|2-2-x-x-x-0-0-x-x-x-2-2--|
|2-2-x-x-x-0-0-x-x-x-0-0--|
|0-0-------2-2-------0-0--|
|0-0-------3-3------------|


Lyrics for chorus 1

He was living in the end
He was living in the end

Chorus Fill-in (Same as intro)


|---------------2---2---|
|----3--------3---3-----|
|0h2------0h2-----------|
|------0----------------|
|-----------------------|
|-----------------------|


Verse 2 (1:26-1:51)



|--------------------------|
|--------------------------|
|x-x-7~-x-x-7-x-x-7-x-x-7--|
|x-x-7~-x-x-7-x-x-7-x-x-7--|
|x-x-5~-x-x-5-x-x-5-x-x-5--|
|--------------------------|
|-------------------------|
|-------------------------|
|x-x-5-x-x-5-x-x-7-x-x-7--|
|x-x-5-x-x-5-x-x-7-x-x-7--|
|x-x-3-x-x-3-x-x-5-x-x-5--|
|-------------------------|
|--------------------------|
|--------------------------|
|x-x-7~-x-x-7-x-x-7-x-x-7--|
|x-x-7~-x-x-7-x-x-7-x-x-7--|
|x-x-5~-x-x-5-x-x-5-x-x-5--|
|--------------------------|
|-------------------------|
|-------------------------|
|x-x-5-x-x-5-x-x-7-x-x-7--|
|x-x-5-x-x-5-x-x-7-x-x-7--|
|x-x-3-x-x-3-x-x-5-x-x-5--|
|-------------------------|



Lyrics for Verse 2

Polly and her pity wasn't pretty at all
She concentrated fully on the shine of the star
But your pennies, just a pension
She never let go
They always dominated everything that she owned
She couldn't stop to see, she didn't have the time
How could she afford to pay attention to life?
Oh it's all the same for Polly the Vain
If she had to do it over she would do it the same


Chorus 2 (1:51-2:04)


|----------3-3-------2-2--|
|1-1-x-x-x-3-3-x-x-x-3-3--|
|2-2-x-x-x-0-0-x-x-x-2-2--|
|2-2-x-x-x-0-0-x-x-x-0-0--|
|0-0-------2-2-------0-0--|
|0-0-------3-3------------|
|----------3-3-------2-2--|
|1-1-x-x-x-3-3-x-x-x-3-3--|
|2-2-x-x-x-0-0-x-x-x-2-2--|
|2-2-x-x-x-0-0-x-x-x-0-0--|
|0-0-------2-2-------0-0--|
|0-0-------3-3------------|


Lyrics for chorus 2

He was living in the end
He was living in the end

Bridge (2:04-3:04)

(Chords:) D C
(Lyrics:) Are you alright darling, alright now?

Youll [G]never be, youll never be the same[D]

Are you [D]alright darling, [C]alright now?

[G]Dont you ever wanna, ever wanna see some change[D]

You [A]didn't see it coming

that's the tale of his life

[Em]Easy operator laid to rest in the night

He had to[C] take the hit it's always the same
( Tab from: http://www.guitartabs.cc/tabs/o/oar/living_in_the_end_tab.html )
[D]That's the waste you see in killing Billy Kincaid

[D]That's the waste you see in killing Billy Kincaid

D,D,E,E

Are you [D]alright darling, [C]alright now?

[G]Dont you ever wanna, ever wanna see some change[D]

Solo (3:04-3:28) Very difficult solo, just listen extremely close to the song and try
play along. I think I did an ok job tabbing this solo.



|--------------|
|10p7---7------|
|-----9---9p7--| (5x)
|--------------|
|--------------|
|--------------|
|---------------------------------------------------------------------------------|
|10p7---7-----5/7-10-7---------7---------------------------------------7-10-7-10-|
|-----9---9p7----------9p7-9p7--7-7-------7---------------7---7h9-7-9------------|
|------------------------------------9p7-----9-7-----7-9-9---9--------------------|
|----------------------------------------9-------7-9------------------------------|
|---------------------------------------------------------------------------------|
|-------------------------------------------------------------------------|
|10-12-10-12-10-12-10-12-10-12-10-10-13-10-13-10-13-10-13/15-13-15-13-15--|
|-------------------------------------------------------------------------|
|-------------------------------------------------------------------------|
|-------------------------------------------------------------------------|
|-------------------------------------------------------------------------|
|5-----5-----------------------10------10------10-10-10-10----------------|
|6-----6-------------6-8--8-10----8-10----8-10----------------------------|
|7-7---7-7-7-----5-7------------------------------------------------------|
|----7-------5-7----------------------------------------------------------|
|-------------------------------------------------------------------------|
|-------------------------------------------------------------------------|


Are you [D]alright darling, [C]alright now?

[G]Dont you ever wanna, ever wanna see some change[D]



|------10---10---10---10---10--|
|10-12----13---13---13---13----|
|------------------------------|
|------------------------------|
|------------------------------|
|------------------------------|


Are you [D]alright darling, [C]alright now?

[G]Dont you ever wanna, ever wanna see some change[D]



|------10-------10-------10-10/12/15\14--|
|10-12----10-12----10-12-----------------|
|----------------------------------------|
|----------------------------------------|
|----------------------------------------|
|----------------------------------------|
|---------------2---2---|
|----3--------3---3-----|
|0h2------0h2-----------| Repeat till end
|------0----------------|
|-----------------------|
|-----------------------|

Lyrics for entire song:

An easy operator on the side of the road
A million dollar man in a lower class home
Chopping trees for needs of a spiritual kind
Forever getting low while he try to be high

He was an early morning eagle, lion flew from a fire
Barely getting over forget getting by
But its all the same to Billy Kincaid
If he had to do it over, he would do it the same

He was, living in the end
He was, living in the end

Now Polly and her pity wasn't pretty at all
She concentrated fully on the shine of a star
Pinching pennies just to pinch them, she never let go
They always dominated everything that she owned

She couldn't stop to say she didn't have the time
Well how could she afford to pay attention to life?
Now its all the same, for Polly the Vain
If she had to do it over, she would do it the same

She was, living in the end
She was, living in the end

Are you alright darling, alright now?
You'll never be, never be the same
Are you alright darling, alright now?
Don't you ever wanna, ever want to see some change?

He didn't see it coming, that's the tale of his life
The easy operator laid to rest in the night
He had to take the hit, it's always the same
And that's the way she see it, killing Billy Kincaid
That's the way she see it, killing Billy Kincaid

Are you alright darling, alright now?
Don't you ever wanna, ever want to see some change?

Are you alright darling, alright now?
Don't you ever wanna, ever want to see some change?

Chords List

Chord: Living in the End - O.A.R. - tab, song lyric, sheet, guitar, ukulele
Maybe you like