Chord/Tab song: Life Is Going Down

Chord,Tablature, lyric, sheet, guitar, ukulele song: Life Is Going Down - ( This is Iza's guitar. Basicaly the chords are simply Em-G...)

4 years ago825IZIA (2009) IZIA
--
This is Iza's guitar.
Basicaly the chords are simply Em-G-C-Am throught the whole song.

> Intro :

[Em] [G] [Em] [G] [C] [G]

e|--------------------------------------------------------------------|
B|--------------------------------------------------------------------|
G|-----------------------------------------------------0--------------|
D|-----2---2--------0--------2---2------0----------2------------0-----|
A|-------2---2---------2------2----2-------2(2)------3---3----------2-|
E|-0-----------3---------0-----------3----------0-----------3---------|


[Em]

e|-------------------------|
B|-------------------------|
G|-------------------------|
D|-----2---2-----------2---|
A|-------2---2-----------2-|
E|-0-----------3-----------|


> Verse :

[Em] [G] [C] [Am]

e|---------------------------------------------------|
B|---------------------------------------------------|
G|---------------------------------------------------|
D|------2---2--------0---0--------2---2--------2-----| x3
A|--------2---2--------2---2--------3---3----------0-|
E|-0------------3------------0------------0----------|


On the 4th time, the end is a little diferent :

[Em] [G] [C] [Em]

e|-------------------------------------------------------|
B|-------------------------------------------------------|
G|-------------------------------------------------------|
D|------2---2--------0---0--------2---2--------2---2-----|
A|--------2---2--------2---2--------3---3--------2---2---|
E|-0------------3------------0------------0------------0-|


> Pre-Chorus :
( Tab from: http://www.guitartabs.cc/tabs/i/izia/life_is_going_down_tab.html )
e|[Em]00000000|[G]33333333|[C]00000000|[Am]00000000|
B|00000000|00000000|11111111|11111111|
G|00000000|00000000|00000000|22222222|
D|22222222|00000000|22222222|22222222| x 5
A|22222222|22222222|33333333|00000000|
E|02222222|33333333|00000000|00000000|

> Chorus :

e|[Em]00000000|[G]33333333|[C]00000000|[Am]00000000|
B|00000000|00000000|11111111|11111111|
G|00000000|00000000|00000000|22222222|
D|22222222|00000000|22222222|22222222| x 3
A|22222222|22222222|33333333|00000000|
E|02222222|33333333|00000000|00000000|

> Verse.

> Pre-Chorus :

e|[Em]00000000|[G]33333333|[C]00000000|[Am]00000000|
B|00000000|00000000|11111111|11111111|
G|00000000|00000000|00000000|22222222|
D|22222222|00000000|22222222|22222222| x 4
A|22222222|22222222|33333333|00000000|
E|02222222|33333333|00000000|00000000|

> Chorus :

e|[Em]00000000|[G]33333333|[C]00000000|[Am]00000000|
B|00000000|00000000|11111111|11111111|
G|00000000|00000000|00000000|22222222|
D|22222222|00000000|22222222|22222222| x 4
A|22222222|22222222|33333333|00000000|
E|02222222|33333333|00000000|00000000|

[Em] [G] [C] [Am]

e|0-------|3-------|0-------|0-------|
B|0-------|0-------|1-------|1-------|
G|0-------|0-------|0-------|2-------|
D|2-------|0-------|2-------|2-------| x 2
A|2-------|2-------|3-------|0-------|
E|0-------|3-------|0-------|0-------|


e|[Em]00000000|[G]33333333|[C]00000000|[Am]00000000|
B|00000000|00000000|11111111|11111111|
G|00000000|00000000|00000000|22222222|
D|22222222|00000000|22222222|22222222| x 2
A|22222222|22222222|33333333|00000000|
E|02222222|33333333|00000000|00000000|

Hold on Am.

THE END !

Chords List

Chord: Life Is Going Down - tab, song lyric, sheet, guitar, ukulele
Maybe you like