Chord/Tab song: Laugh away - YUI

Chord,Tablature, lyric, sheet, guitar, ukulele song: Laugh away - YUI - ( YUI - Laugh Away INTRO: [Asus2] riff: [Asus2] [Bsus...)

--
YUI - Laugh Away



------------------------------------------------------------------------|
------------------------------------------------------------------------|
-9--11--9h11p9---8--9--9--11--9h11p9--8--9--8--------8--9--9/11--9--8---|
----------------------------------------------9--9/11-------------------|
------------------------------------------------------------------------|
------------------------------------------------------------------------|
-------------------------------------------------------------------------------|
-------------------------------------------------------------------------------|
---11--11--9h11p9--8--9--11--11--9h11p9--8--9--8--------8--9--9/11--9--8--9-9--|
-------------------------------------------------9--9/11-----------------------|
-------------------------------------------------------------------------------|
-------------------------------------------------------------------------------|


INTRO:
[Asus2]
riff:

[Asus2] [Bsus4/A] [CM7/A] [E7sus4]
[Asus2] [Bsus2] [C#m] [Bsus2]

`-------x2----------


VERSE:

[E] [Asus2] [C#m] [Bsus2]

`-------x2------


[F#7] [Asus2] [Bsus2]
[Bsus2]
CHORUS:
[Asus2] [E] [Bsus2] [C#m]

`-------x2-------


INSTRUMENTAL:
[Asus2] [Bsus2] [C#m] [Bsus2]
repeat VERSE

CHORUS

SOLO:
[D] [E]
[D] [Bsus2]

INTERLUDE:

[C#m] [Ebm] [E] [F#m]

`------x2-----


[C#m] [Ebm] [F#]

CHORUS

OUTRO:

[Asus2] [Bsus2] [C#m] [Bsus2]

`-----x2-------------


[Asus2]
Asus2 - x02200
Bsus2 - x24422
C#m - x46654
Ebm - x68876
Bsus4/A - x04400
CM7/A - x05500
E7sus4 - x07700

Chords List

Chord: Laugh away - YUI - tab, song lyric, sheet, guitar, ukulele
Maybe you like