Chord/Tab song: Ja, roducheln!!! - Turbostaat

Chord,Tablature, lyric, sheet, guitar, ukulele song: Ja, roducheln!!! - Turbostaat - ( Song: Ja, Roducheln! Album: Vormann Leiss tabbed by: Eri...)

--
Song: Ja, Roducheln!
Album: Vormann Leiss

tabbed by: Eric Lambrecht
~~~~~~~~~~~

Notes: german song, thus tab is written in german!

Intro:
h G


e:-|-------14~------------------|-------14~---------------------|
b:-|----15~---------------------|----15~------------------------| [Gitarre 1, links]
G:-|-16~------------------------|-16~---------------------------|
D:-|----------------------------|-------------------------------|
A:-|----------------------------|-------------------------------|
E:-|----------------------------|-------------------------------|

| | |


e:-|----------------------------|-------------------------------|
b:-|----------------------------|-------------------------------| [Gitarre 2, rechts]
G:-|----------------------------|-------------------------------|
D:-|-0-0-0-0...-(insg. 16x)-----|-------------------------------|
A:-|-2-2-2-2...-----------------|-2-2-2-2...-(16x)--------------|
E:-|----------------------------|-3-3-3-3...--------------------|


Strophe:
h G


e:-|------------------2~--------|------------------2~-----------|
b:-|---------------3~-----------|---------------3~--------------|
G:-|------------4~--------------|------------4~-----------------|
D:-|----------------------------|-------------------------------|
A:-|----------------------------|-------------------------------|
E:-|----------------------------|-------------------------------|

| | |


e:-|----------------------------|-------------------------------|
b:-|----------------------------|-------------------------------|
G:-|----------------------------|-------------------------------|
D:-|-0-0-0-0...-(16x)-----------|-------------------------------|
A:-|-2-2-2-2...-----------------|-2-2-2-2...-(16x)--------------|
E:-|----------------------------|-3-3-3-3...--------------------|


Refrain:
h G


e:-|-----2-----------5-----2-----2---|---2-----0-----0---2-----0-----0-|
b:-|---3---3---3-------3-----3-------|-----3-----3---------3-----3-----|
G:-|-4-------4---4-------4-----4---4-|-4-----4-----4---4-----4-----4---|
D:-|---------------------------------|---------------------------------|
A:-|---------------------------------|---------------------------------|
E:-|---------------------------------|---------------------------------|

| | |


e:-|---------------------------------|---------------------------------|
b:-|---------------------------------|---------------------------------|
G:-|---------------------------------|---------------------------------|
D:-|---------------------------------|-0-0-0-0...-(16x)----------------|
A:-|-2-2-2-2-2-2-2-2-5-5-5-5-5-5-5-5-|-2-2-2-2...----------------------|
E:-|-0-0-0-0-0-0-0-0-3-3-3-3-3-3-3-3-|---------------------------------|

So ist das wohl So ist das
e G h


e:-|---2-----2-----2---5-----2-----2-|---2-----0-----0---2-----0-----0-|
b:-|-----3-----3---------3-----3-----|-----3-----3---------3-----3-----|
G:-|-4-----4-----4---4-----4-----4---|-4-----4-----4---4-----4-----4---|
D:-|---------------------------------|---------------------------------|
A:-|---------------------------------|---------------------------------|
E:-|---------------------------------|---------------------------------|

| | |


e:-|---------------------------------|---------------------------------|
b:-|---------------------------------|---------------------------------|
G:-|---------------------------------|---------------------------------|
D:-|---------------------------------|-0-0-0-0...-(16x)----------------|
A:-|-2-2-2-2-2-2-2-2-5-5-5-5-5-5-5-5-|-2-2-2-2...----------------------|
E:-|-0-0-0-0-0-0-0-0-3-3-3-3-3-3-3-3-|---------------------------------|

So ist das wohl So ist das

e G h D


e:-|---------------------------------|---------------------------------|
b:-|---------------------------------|---------------------------------|
G:-|---------------------------------|---------------------------------|
D:-|---------------------------------|-4-4-4-4-4-4-6-6-7-7-7-7-7-7-7-7-|
A:-|-2-2-2-2-2-2-4-4-5-5-5-5-5-5-5-5-|-2-2-2-2-2-2-4-4-5-5-5-5-5-5-5-5-|
E:-|-0-0-0-0-0-0-2-2-3-3-3-3-3-3-3-3-|---------------------------------|

(beim 2ten Mal)


|-------------------------------|
|-2-2-2-0-2-2-2-0-2-2-2-0-2-2-2-|
|-------------------------------|

| | |


e:-|---------------------------------|---------------------------------|
b:-|-------5-------5-------5---------|-------5-------5-------5---------|
G:-|---7-------7-------7-------7-----|---7-------7-------7-------7-----|
D:-|-5-------------------------------|-7-------------------------------|
A:-|---------------------------------|---------------------------------|
E:-|---------------------------------|---------------------------------|

Die Richter irren und wir nicken nur

Solo:


e:-|---------------------------------|---------------------------------|
b:-|---------------------------------|---------------------------------|
G:-|-----------------2-2-2-2-2-2-2-2-|-4-4-4-4-4-4-4-4-6-6-6-6-6-6-6-6-|
D:-|-4-4-4-4-4-4-4-4-----------------|---------------------------------|
A:-|---------------------------------|---------------------------------|
E:-|---------------------------------|---------------------------------|
e:-|---------------------------------|---------------------------------|
b:-|---------------------------------|---------------------------------|
G:-|-------------------------7-7-7-7-|-------------------------7-7-7-7-|
D:-|-7-7-7-7-7-7-7-7-7-7-7-7---------|-7-7-7-7-7-7-7-7-7-7-7-7---------|
A:-|---------------------------------|---------------------------------|
E:-|---------------------------------|---------------------------------|

p.m.................... .......................



e:-|-/5-5-5-5-5-5-5-5-3-3-3-3-3-3-3-3-|-2-2-2-2-2-2-2-2-0-0-0-----------|
b:-|----------------------------------|-----------------------3-3-3-3-3-|
G:-|----------------------------------|---------------------------------|
D:-|----------------------------------|---------------------------------|
A:-|----------------------------------|---------------------------------|
E:-|----------------------------------|---------------------------------|

| | |


e:-|----------------------------------|---------------------------------|
b:-|----------------------------------|---------------------------------|
G:-|--------------------------7-7-7-7-|-------------------------7-7-7-7-|
D:-|--7-7-7-7-7-7-7-7-7-7-7-7---------|-7-7-7-7-7-7-7-7-7-7-7-7---------|
A:-|----------------------------------|---------------------------------|
E:-|----------------------------------|---------------------------------|

p.m..................... .......................

Intro
Strophe
Refrain
Solo
Refrain 2: (Rechte Gitarre spielt hier das Riff aus dem Solo weiter...)
Ende

>>> Das war's hauptschlich, hoffe das hilft
>>> und ihr habt Spa beim Turbostaat spielen

Chords List

Chord: Ja, roducheln!!! - Turbostaat - tab, song lyric, sheet, guitar, ukulele
Maybe you like