Chord/Tab song: It's Only Time - Drake Bell

Chord,Tablature, lyric, sheet, guitar, ukulele song: It's Only Time - Drake Bell - ( Intro: E A B x2 [E]Where did you g[A]o when I ar[E]rived...)

--
Intro: E A B x2

[E]Where did you g[A]o when I ar[E]rived
What was that l[A]ook, saw in your eye[E]s
nothing [A]is what it appea[E]rs
I'm a bit more re[A]fined in my recent years
[E]She said I [A]wasn't even he[E]re
She said I [A]wasn't even
[E]She said I [A]wasn't even he[E]re
[E]She said I [A]wasn't

[E]It's only t[A]ime
un[B]til you find [E]out
[E]it's only t[A]ime
[B]until you find [E]out
it's only t[A]ime
[B]until you find [E]out
it's only [A]time
un[B]til you find [E]out



e|---------------------------------------------------------------------------|
B|---------------------------------------------------------------------------|
G|---------------------------------------------------------------------------|
D|---------------------------------------------------------------------------|
A|-7-7-7-7-7-7-9-9-9-7-9-11-11-9----7-7-7-7-7-7-9-9-9-7-9-11-11-9------------|
E|---------------------------------------------------------------------------|
e|---------------------------------------------------------------------------|
B|---------------------------------------------------------------------------|
G|---------------------------------------------------------------------------|
D|---------------------------------------------------------------------------|
A|-6-7-7-7-7--6-7-7-7-7-7-9-11-11-11-11-9-11-11-11-11------------------------|
E|---------------------------------------------------------------------------|




[E]do you bel[A]ieve in things that you h[E]ear
maybe you're [A]wrong

it isn't clear
[E]Another exc[A]use for me to ig[E]nore
it's not quite as [A]simple as it was before

[E]She said I [A]wasn't even he[E]re
She said I [A]wasn't even
[E]She said I [A]wasn't even he[E]re
[E]She said I [A]wasn't

[E]It's only t[A]ime
un[B]til you find [E]out
[E]it's only t[A]ime
[B]until you find [E]out
it's only t[A]ime
[B]until you find [E]out
it's only [A]time
un[B]til you find [E]out



e|---------------------------------------------------------------------------|
B|---------------------------------------------------------------------------|
G|---------------------------------------------------------------------------|
D|---------------------------------------------------------------------------|
A|-7-7-7-7-7-7-9-9-9-7-9-11-11-9----7-7-7-7-7-7-9-9-9-7-9-11-11-9------------|
E|---------------------------------------------------------------------------|
e|---------------------------------------------------------------------------|
B|---------------------------------------------------------------------------|
G|---------------------------------------------------------------------------|
D|---------------------------------------------------------------------------|
A|-6-7-7-7-7--6-7-7-7-7-7-9-11-11-11-11-9-11-11-11-11------------------------|
E|---------------------------------------------------------------------------|


I'm giving in
it's coming out
you gave it away
I'm thinking about
Not taking it
you're faking it
you're such a sad girl
sad girl



e|-12-11-12-12--12-12-12-12-11-9-11-12---12-11-12-12--12-12-12-12-11-9-11-12-|
B|---------------------------------------------------------------------------|
G|---------------------------------------------------------------------------|
D|---------------------------------------------------------------------------|
A|---------------------------------------------------------------------------|
E|---------------------------------------------------------------------------|
e|-12-12-12-12-14-14-16-14-12------------------------------------------------|
B|---------------------------------------------------------------------------|
G|---------------------------------------------------------------------------|
D|---------------------------------------------------------------------------|
A|---------------------------------------------------------------------------|
E|---------------------------------------------------------------------------|



were did you leave
why did you go
what were you thinking
I'd like to know
If walking away is all it's about
Then why did it [A]take so long to figure out

[E]She said I [A]wasn't even he[E]re
She said I [A]wasn't even
[E]She said I [A]wasn't even he[E]re
[E]She said I [A]wasn't

[E]It's only t[A]ime
un[B]til you find [E]out
[E]it's only t[A]ime
[B]until you find [E]out
it's only t[A]ime
[B]until you find [E]out
it's only [A]time

[E]it's only [A]ti[B]me
[E]it's only [A]ti[B]me
[E]it's only [A]ti[B]me
[E]it's only [A]ti[B]me
[E]it's only[A][B][E]

Chords List

Chord: It's Only Time - Drake Bell - tab, song lyric, sheet, guitar, ukulele
Maybe you like