Chord/Tab song: Heartbreaking Music - Lagwagon

Chord,Tablature, lyric, sheet, guitar, ukulele song: Heartbreaking Music - Lagwagon - ( Song: Heartbreaking Music Album: Resolve Tuning: Standard...)

a year ago138 Resolve (2005) Lagwagon
--
Song: Heartbreaking Music
Album: Resolve
Tuning: Standard

""Play note several times
"+"Play note several times, but not as often as ""

Verse


G|-------------------------------------------------------|
D|-------------------------------------------------------|
A|--5------3----------5------3-----------------------|
E|------6------1+--5+------6------1+--5+--6--8---------|


Chorus


G|--------------------3--------------|
D|--------3-----3-3-3---3-3----------|
A|--5-5-5---5-5--------------1~--3~--|
E|-----------------------------------|
G|---------[x3]-------3-----|-----------------------------|
D|--------3-----3-3-3---3-3-|-------3-----3---------------|
A|--5-5-5---5-5-------------|-5-5-5---5-5---3-----3-4-5---|
E|--------------------------|-----------------------------|


Verse


G|-------------------------------------------------------|
D|-------------------------------------------------------|
A|--5------3----------5------3-----------------------|
E|------6------1+--5+------6------1+--5+--6--8---------|


Chorus


G|--------------------3--------------|
D|--------3-----3-3-3---3-3----------|
A|--5-5-5---5-5--------------1~--3~--|
E|-----------------------------------|
G|---------[x3]-------3-----|-----------------------------|
D|--------3-----3-3-3---3-3-|-------3-----3---------------|
A|--5-5-5---5-5-------------|-5-5-5---5-5---3~------------|
E|--------------------------|-----------------------------|


Bridge


G|-------------------------------------------------------7-7-7--------------------|
D|------------------------8--8-8-8--------10--10-10-10---------8-8-8-7-7-7-5-5-5--|x3
A|--5-5-8-5--5-5-5--5-5-8-----------5-5-8-----------------------------------------|
E|--------------------------------------------------------------------------------|
G|--------------------|
D|--------------------|
A|-----0--1--3+--4--|
E|-1-----------------|



Verse


G|-------------------------------------------------------|
D|-------------------------------------------------------|
A|----------------------5------3-----------------------|
E|--------------1+--5+------6------1+--5+--6--8---------|


Chorus


G|--------------------3--------------|
D|--------3-----3-3-3---3-3----------|
A|--5-5-5---5-5--------------1~--3~--|
E|-----------------------------------|
G|---------[x3]-------3-----|-----------------------|
D|--------3-----3-3-3---3-3-|-------3~--3-----------|
A|--5-5-5---5-5-------------|-5-5-5--------3--5--5--|
E|--------------------------|-----------------------|


Tabbed by Olli
olli.32@gmx.de

Chords List

Chord: Heartbreaking Music - Lagwagon - tab, song lyric, sheet, guitar, ukulele
Maybe you like