Chord/Tab song: Golden Boy - Primus

Chord,Tablature, lyric, sheet, guitar, ukulele song: Golden Boy - Primus - ( Primus - Goldenboy Standard Tuning Start e--- [B---]G---...)

2 years ago315 Brown Album (1997) Primus
--
Primus - Goldenboy
Standard Tuning

Start
e---
[B---]G---Repeat
D-8-
[A-7-]
[E---]
Main Riff (Slow the song down using Win. Medai Player 9)


e-------------|-----------------|---------------|--------------|
B-------------|-----------------|---------------|--------------|
G-------------|------------7-7--|---------------|--------------|
D-------6h7---|-----6h7--------9|--------6h7----|----6h7-----9-|
A-9/-6h7---5-5|--6h7----6h7-----|-----6h7----5-5|-6h7----6h7---|
E-7/----------|-----------------|-7-7-----------|--------------|


Verse (same as chorus just played 2 frets lower)


e--------------|-----------------|---------------|--------------|
B--------------|-----------------|---------------|--------------|
G--------------|------------5-5--|---------------|--------------|
D-------4h5----|-----4h5--------7|--------4h5----|----4h5-----7-|
A-7/-4h5----3-3|--4h5----4h5-----|-----4h5----3-3|-4h5----4h5---|
E-5/-----------|-----------------|-5-5-----------|--------------|


Solo (please note, this solo is not all tabbed
- mainly due to the stupidly fast bit) Solo Start: 1:40ish Note: this bit i'm not sure about 1:50^


e---------------------------------------------------------|----------------|
B---------------------17~----------------------17~--17----|----------------|
G-------------------16~--16/14-14p13~~13~~14-16~--14--13--|-13 13-13/ 9/13-|
D-14-15^-14----14-16~--------------14~-~14--------------14|-14-14-14/10/10-|
A-----------14--------------------------------------------|----------------|
E---------------------------------------------------------|----------------|
Pm---------------|


1:55 (very fast indeed)


e----------12-12p0-0-12/-|
B-5-0-0-11---------------|
G------------------------|
D------------------------|
A------------------------|
E------------------------|


From here on he does something really fast that i couldn't work out, but it shouldn't be too hard to improvise over!!!

Scott Coello

Chords List

Chord: Golden Boy - Primus - tab, song lyric, sheet, guitar, ukulele
Maybe you like