Hợp âm - tab: Genetix - The Stranglers - cảm âm - lời bài hát

Cảm âm, tablature, hợp âm, tabs guitar, ukulele, lời bài hát: Genetix - The Stranglers - ( The Stranglers - Genetix Tabbed By: Reecy Email: Bushhead...)

--
The Stranglers - Genetix
Tabbed By: Reecy
Email: Bushhead81@Hotmail.com

Tuning: Standard (E A D G B E)


GENETIX


-------

Transcription by: Richard Stanforth (rtstanforth@hotmail.com)
Date of Transcription: 1st April 2002

This transcription and more is exclusive to and can be found at :-
http://www.geocities.com/strangledchords

drum intro with main riff:
(listen to the recording for the rhythm)



E-------------------------------
B-------4-5------------8-8p5----
G-----6-----6-------6--------6--
D-5-7----------5-7--------------
A-------------------------------
E-------------------------------


keyboards and bass enter (underlying chord is A):

[F]See the little [G]nucle[F]i[G]
[F]Bursting full of [G]infor[F]matio[G]n

A (main riff)

[E]There's a need to [D]regu[E]late[D]
[E]Bring it down to [D]cells and [E]plasma[D]

E (second riff):



E----------------------------
B----------------------------
G-------3-4---------7-7p4----
D-----6-----6-----6-------6--
A-5-7---------5-7------------
E----------------------------


[F]Tell you what they're [G]gonna [F]do[G]
[F]Started doing [G]it al[F]ready[G]

A (main riff)

[E]Got to find [D]something [E]new[D]
[E]Looking for it [D]in ge[E]netix[D]

E (second riff)

(as a sort of bridge, there is a kinda 'question and answer'
section where the guitar plays a riff followed by the bass)



E-------------------------------|-------------------------------|
B-------------------------------|-------------------------------|
G-7-7p4---7p4---7p4---7--bass-|-7-7p4---7p4---7p4---7--bass-|
D-------6-----6-----6----bass-|-------6-----6-----6----bass-|
A-------------------------------|-------------------------------|
E-------------------------------|-------------------------------|
E------------------------------------------|
B-15-15p12----15p12----15p12----15--bass-|
G----------12-------12-------12-----bass-|
D------------------------------------------|
A------------------------------------------|
E------------------------------------------|
E----------------------------------|
B-------15---------15---------15---|
G-------12---------12---------12---|
D-12-13-13---12-13-13---12-13-13---|

[F] [G]

E--------------|
B--------------|
G--------------|
D--------------|
A------------2-|
E-1--1-1-1-3---|






E-------------------|
B-------------------|
G-------------------|
D-------------------| <- this is repeated a number of times before he follows the
A--------------2--1-| bassline
E-3--3-3--3-3-------|
E------------------|
B------------------|
G------------------|
D------------------|
A------------------|
E--3-3-3--3-3-3--3-|


[G]Gene regula[F]tion, gene regu[Bb]lation, gene reg[A]ulat[C]ion[D]

(repeat the chord sequence: G F Bb A C D, over Hugh's "laws of Segragation" speech)

Final outro chords:

G F G Bb G Bb G F (x4)



G F-F#-G F-F#-G F-F#-G


Song ends on a keyboard chord of G, which gets slowed down to exactly an octave
lower.

Danh sách hợp âm

Hợp âm: Genetix - The Stranglers - cảm âm, tab guitar, ukulele - lời bài hát
Có thể bạn thích