Chord/Tab song: Funeral Spring - Sentenced

Chord,Tablature, lyric, sheet, guitar, ukulele song: Funeral Spring - Sentenced - ( Funeral Spring by SENTENCED bass tab by Asko Mki asko@s...)

3 months ago34 Other Songs Sentenced
--
Funeral Spring by SENTENCED


-----------------------------------

bass tab by Asko Mki asko@sci.fi
more SENTENCED tabs at http://www.sci.fi/~asko/sntncd.html

tune down 1/2 step
riff 1.


Gb|-------------------------------------------------|
Db|------------9---9--7h9-7-----------9---9--7h9-9--|
Ab|--7---7-5-7--------------5---5-3-5---------------|
Eb|-------------------------------------------------|


riff 2.


|------------------------|
|-----0---2--------------|
|-2-----------0----------|
|-----------------3---0--|


riff 3.


|----------------------------|
|------------------------0---| ect.
|----------------------------|
|---0----------3-------------|

riff 4.


|----------------------------------------------------|
|'---------------------------------------------------|
|'---------------------------------------------------|
|--3--3--3--3p2--2--2--2--2p0--0---0--0---0--0--0--2-|
-----------

|1.


|---------------------------------------------------------|
|--------------0--0--0--0-0-2--2-2-4--4-4-5--5-5-7-5-4-5-'|
|--------------------------------------------------------'|
|-3--3--3--3-3--------------------------------------------|
------------

|2.


|---------------|
|---------------|
|---------------|
|-3-----/10-----|


riff 5. (riff '?)


|-------------------------------|
|-------------------------------|
|-------------------------------|
|-0--0-0---0-0---0--0-0-0-0-0-0-|



riff 1
[2]
[1]
[2]
[3]
[1]
[2]
[3]
[4]
[5]
[1]
[2]
[4]
http://www.sci.fi/~asko/sntncd.html

Chords List

Chord: Funeral Spring - Sentenced - tab, song lyric, sheet, guitar, ukulele
Maybe you like