Chord/Tab song: Freeker By The Speaker - Keller Williams

Chord,Tablature, lyric, sheet, guitar, ukulele song: Freeker By The Speaker - Keller Williams - ( Tune down 1 whole step (D-G-C-F-A-d) Verse 1: Verse ...)

2 months ago36 12 (2007) Keller Williams
--
Tune down 1 whole step (D-G-C-F-A-d)

Verse 1:



d --------------------------------------------------|
A ----------------------------------5---------------|
F ----1-------------------------------6-----6-------|
C ----2------------0h2p0h2p0------------------------|
G ----2---0h2p0h20------------3/5--------7----------|
D -0------------------------------------------------|


Verse 2:
[G] [F] [G] [F] [G] [F] [G] [G]

d --5----3--3---------0--0---------3----3---------0--0--------3-3----0-0-|
A --5----3----3-------2----2-------3------3-------2----2------3--3---2-2-|
F --6----0------0-----2------2-----0--------0-----2------2----0---0--2-2-|
C --7----0--------0---2--------2---0----------0---2--------2--0----0-2-2-|
G --7----2------------0------------2--------------0-----------2------0-0-|
D --5----3-------------------------3--------------------------3----------|


Singing along:

Verse 1

Human Dredril spinning around
How do you not dizzy out and fall down
Is that what happens when you feel the sound (Pause)
But if that was me I would be on the ground

Verse 2
And I w[B]ould not get up
I would d[F]ance on my back
Throw my [B]legs up in the air
Like [F]I don't care
And [B]wave them from [F]side to side
Then I'd bust into a [B]wind[B]mill (Pause)

And right into a backspin

Chorus
(Play Verse 1)
Freeker right by the speaker
never seems to get enough
Priceless expressions when space is possession
D (Pause) A B# B A B# B


Like Yeah, that's the stuff > d -------------|
A -------------|
B F F --4--5--6----|
Electronic stereophonic C --4--5--6----|
B F G --2--3--4----|
Coming from the left and the right D -------------|


Verse 1 (played once)
Its good in the day
I like it that way
But it's p[D]erfectly normal at night

Fill


d ---------------|
A ---------------|
F ---------------|
C --2/3/4--------|
G --2/3/4--------|
D ---------------|


REPEAT ALL
FOR THE REST OF THE SONG

Chords List

Chord: Freeker By The Speaker - Keller Williams - tab, song lyric, sheet, guitar, ukulele
Maybe you like