Chord/Tab song: Evolution - Unwritten Law

Chord,Tablature, lyric, sheet, guitar, ukulele song: Evolution - Unwritten Law - ( EVOLUTION - Unwritten Law By: Joe DROP D TUNING!!!!...)

2 years ago332 Elva (2001) Unwritten Law
--

-------------------------------------------------------------------------------

EVOLUTION - Unwritten Law


-------------------------------------------------------------------------------


By: Joe

DROP D TUNING!!!!!

Intro 1
Bass enters first.


e|-------|
B|-------|
G|-------|

D|--/5^--|


A|-------|
D|-------|
e|------------------------------------------------------|
B|------------------------------------------------------|
G|------------------------------------------------------|
D|-2--2-5-2--2-5-2-5-2-0-2-5-2-0-2--0-5-2-0-2--0-5-2-0--|
A|-2--2-5-2--2-5-2-5-2-0-2-5-2-0-2--0-5-2-0-2--0-5-2-0--|
D|-2--2-5-2--2-5-2-5-2-0-2-5-2-0-2--0-5-2-0-2--0-5-2-0--|
e|-------------------------------------------------|
B|-------------------------------------------------|
G|-------------------------------------------------|
D|-2--2-5-2--2-5-2-5-2-0-2-5-2-0-2--0-5-2-0-2/9-8--|
A|-2--2-5-2--2-5-2-5-2-0-2-5-2-0-2--0-5-2-0-2/9-8--|
D|-2--2-5-2--2-5-2-5-2-0-2-5-2-0-2--0-5-2-0-2/9-8--|


Play this once with slow tempo.

Intro 2


e|-----------------------------------------------------|
B|-----------------------------------------------------|
G|-----------------------------------------------------|
D|-2--2-5-2--2-5-2-5-2-0-2-5-2-0-2--2-0-2--2-0-2--0-0--|
A|-2--2-5-2--2-5-2-5-2-0-2-5-2-0-2--2-0-2--2-0-2--0-0--|
D|-2--2-5-2--2-5-2-5-2-0-2-5-2-0-2--2-0-2--2-0-2--0-0--|
e|----------------------------------------------------|
B|----------------------------------------------------|
G|----------------------------------------------------|
D|-2--2-5-2--2-5-2-5-2-0-2-5-2-0-2--2-0-2--0-0-2/9-8--|
A|-2--2-5-2--2-5-2-5-2-0-2-5-2-0-2--2-0-2--0-0-2/9-8--|
D|-2--2-5-2--2-5-2-5-2-0-2-5-2-0-2--2-0-2--0-0-2/9-8--|


Play this once with fast temp.

Verse


e|---------------------------------------------------------------------------------------------------|
B|---------------------------------------------------------------------------------------------------|
G|---------------------------------------------------------------------------------------------------|
D|--2-2-0-2--------5-5-5-5-5/7--2-2-0-2--------5-5-5-5-5-5--2-2-0-2---5-5-0-2---2-2-0-2---5-5-0--2---|
A|--2-2-0-2--------5-5-5-5-5/7--2-2-0-2--------5-5-5-5-5-5--2-2-0-2---5-5-0-2---2-2-0-2---5-5-0--2---|
D|--2-2-0-2--------5-5-5-5-5/7--2-2-0-2--------5-5-5-5-5-5--2-2-0-2---5-5-0-2---2-2-0-2---5-5-0--2---|
[----PM---] [-PM-]
e|-------------------------|
B|-------------------------|
G|--9-9-9-9-9-9-9-9-9-9-9--|
D|-------------------------|
A|-------------------------|
D|-------------------------|


Quick Pre Chorus 1



e|---------|
B|---------|
G|---------|
D|--7-7-9--|
A|--7-7-9--|
D|--7-7-9--|


Chorus



e|--------------|
B|--------------|
G|--------------|
D|--2-4-5-7-9--| x 2 ( play a number of times, sorry, cant be bothered counting)
A|--2-4-5-7-9--|
D|--2-4-5-7-9--|


Play Intro 2

Play Verse

Quick Pre Chorus 2


e|-------------------|
B|-------------------|
G|-------------------|
D|--7-7-9--10-10-12--|
A|--7-7-9--10-10-12--|
D|--7-7-9--10-10-12--|


Play Chorus

Bridge


e|----------------------------------------------------------------
B|----------------------------------------------------------------
G|----------------------------------------------------------------
D|-2--2-5-2--2-5-2-5-2-0-2-5-2-0-2--0-5-2-0-2/9-9-9-9-9-9-9-9-9\--
A|-2--2-5-2--2-5-2-5-2-0-2-5-2-0-2--0-5-2-0-2/9-9-9-9-9-9-9-9-9\--
D|-2--2-5-2--2-5-2-5-2-0-2-5-2-0-2--0-5-2-0-----------------------
-------------------------------------------------------|
-------------------------------------------------------|
-------------------------------------------------------|
--2--2-5-2--2-5-2-5-2-0-2-5-2-0-2--0-5-2-0-2--0-5-2-0--| x 2
--2--2-5-2--2-5-2-5-2-0-2-5-2-0-2--0-5-2-0-2--0-5-2-0--|
--2--2-5-2--2-5-2-5-2-0-2-5-2-0-2--0-5-2-0-2--0-5-2-0--|
e|---------------------------------------------------------------------|
B|---------------------------------------------------------------------|
G|---------------------------------------------------------------------|
D|-2--2-5-2--2-5-2-5-2-0-2/5-5-5-5-7-7-7-7-2^^^^^^^^2/5-5-5-5-5-5-5-5--| (^ let it ring)
A|-2--2-5-2--2-5-2-5-2-0-2/5-5-5-5-7-7-7-7-2---------------------------|
D|-2--2-5-2--2-5-2-5-2-0-2/5-5-5-5-7-7-7-7-2---------------------------|
e|------------------------------------------------------|
B|--/17\15\12\5--/15\12\8--/15\12\8--8/10-10--10/12-12--|
G|------------------------------------------------------|
D|------------------------------------------------------|
A|------------------------------------------------------|
D|------------------------------------------------------|
e|--------------------------------------------------|
B|--/17\15\12\5--/15\12\8--/15\12\8--8/10-10--10\7--|
G|--------------------------------------------------|
D|--------------------------------------------------|
A|--------------------------------------------------|
D|--------------------------------------------------|
e|--------------------------|
B|--------------------------|
G|--------------------------|
D|-2--2-5-2--2-5-2-5-2-0-2--| x 3
A|-2--2-5-2--2-5-2-5-2-0-2--|
D|-2--2-5-2--2-5-2-5-2-0-2--|
e|--------------------|
B|--------------------|
G|--------------------|
D|-2--2-5-2--5-5-7-7--|
A|-2--2-5-2--5-5-7-7--|
D|-2--2-5-2--5-5-7-7--|


Play Chorus x 3

Outro



e|----------------------------------------------------------------|
B|----------------------------------------------------------------|
G|----------------------------------------------------------------|
D|-2--2-5-2--2-5-2-5-2-0-2-5-5-0-2-----5-5-0-2-----5-5-0-2-----2--|
A|-2--2-5-2--2-5-2-5-2-0-2-5-5-0-2-----5-5-0-2-----5-5-0-2-----2--|
D|-2--2-5-2--2-5-2-5-2-0-2-5-5-0-2-----5-5-0-2-----5-5-0-2-----2--|


Ok, that's the whole lot of it.

If you have any queries, corrections, complaints, requests or praise, email me at
zero1982@mbox.com.au

Chords List

Chord: Evolution - Unwritten Law - tab, song lyric, sheet, guitar, ukulele
Maybe you like