Chord/Tab song: Ever and a Day - AFI

Chord,Tablature, lyric, sheet, guitar, ukulele song: Ever and a Day - AFI - ( ^ palm mute Octave Intro e-|-------------------------...)

--
^ palm mute

Octave Intro


e-|----------------------------------------------------------------------
B-|----------------------------------------------------------------------
G-|---888--777--888--555--888--10"--121212--10"--888--10"--888--777------
D-|----------------------------------------------------------------------
A-|---666--555--666--333--666--888--101010--888--666--888--666--555------
E-|----------------------------------------------------------------------
e-|----------------------------------------------------------------------
B-|----------------------------------------------------------------------
G-|---888--777--888--555--888--10"--121212121212--131313131313--10"------
D-|----------------------------------------------------------------------
A-|---666--555--666--333--666--888--101010101010--111111111111--888888---
E-|----------------------------------------------------------------------

^^ "
Verse
no distortion
PART A PART B PART C PART D


e-|----------------------------------------------------------------------
B-|-------------------------------------------(distortion)---------------
G-|--------5-------------8-------------3--------5-5-5-5------------------
D-|---------------------------------------------5-5-5-5------------------
A-|---3333--333-----6666--666-----1111--111-----3-3-3-3------------------
E-|----------------------------------------------------------------------

^^^^ ^^^ ^^^^ ^^^ ^^^^ ^^^

[ PART A X 4 ] [ PART B X 1 ]
[ PART B X 1 ] [ PART C X 1 ]
[ PART C X 1 ] X2 [ PART A X 1 ] X 1
[ PART A X 2 ] [ PART D x 1 ]

the second verse is the same as this
except the whole thing has distortion

Chorus


e-|----------------------------------|-----------------------------------
B-|----------------------------------|-----------------------------------
G-|--8-8-8---------------------12-10-|-8-8-8---------------------12-12-10
D-|--8-8-8--8-8-8-8-/-10101010-------|-8-8-8--8-8-8-8-/-10101010---------
A-|--6-6-6--8-8-8-8-/-10101010-10-8--|-6-6-6--8-8-8-8-/-10101010-10-10-8-
E-|---------6-6-6-6-/-8-8-8-8--------|--------6-6-6-6-/-8-8-8-8----------


bridge


e-|----------------------------------------------------------------------
B-|----------------------------------------------------------------------
G-|-----3-/-5-5-5-5-5-5--\--3-/-8-8-8------------------------------------
D-|-----3-/-5-5-5-5-5-5--\--3-/-8-8-8------------------------------------
A-|-----1-/-3-3-3-3-3-3--\--1-/-6-6-6------------------------------------
E-|----------------------------------------------------------------------

Chords List

Chord: Ever and a Day - AFI - tab, song lyric, sheet, guitar, ukulele
Maybe you like